Guitar Tabs, Chords and Lyrics


Rain Song   Cold



Tabbed By Bob (Coldheart69)
_ palm mute
/ slide
 bend
C F Bb Eb G C
Intro/verse     (clean with little delay and reverb)
----------------5-------------------5-----------------------------------
------------------3-2-3-0---2-3-------3-2-3-3/5-3-2-3-------------------
--44-4-44-4-44------------4------44-------------------------------------
--__-_-__-_-__------------_------__-------------------------------------
------------------------------------------------------------------------
------------------------------------------------------------------------

Pre-Chorus (Distorted with reverb)
------5------------------------------------
--------3-2-3-3/5-3-2-3--------------------
--44---------------------------------------
--__---------------------------------------
-------------------------------------------
-------------------------------------------

Chorus  Chords no strumming pattern    (Distorted)
-------------------------------------------------
-------------------------------------------------
-------------------------------------------------
-------------------------------------------------
--5----4----9----7-------------------------------
--3----2----7----5-------------------------------

Interlude thingy  (distorted)
------------------------------------------------------------------------
------------------------------------------------------------------------
------------------------------------------------------------------------
--/999999\\777777/11-11-11-11-11-11-11/12-12-12--------------------------
------------------------------------------------------------------------


Important: The song above is NOT stored on the Chordie server. The original song is hosted at www.xguitar.com. Chordie works as a search engine and provides on-the-fly formatting. Chordie does not index songs against artists'/composers' will. To remove this song please click here.

This song is displayed as text-only. Transposing and tuning is only available for chordpro-songs.

Login - add to songbook

Rating click stars to rate

Layout
Accuracy

SHARE PAGE  




You need to log in to post comments