Chordie logo

Remedy   Cold



Band: Cold
Song: Remedy
Album: Year Of The Spider
Tabber: x6kru6sty6x
This song is from Cold\'s brand new album \"Year Of The Spider\"      
And please dont just copy this tab and say that its yours.
	
Intro/Verse

2x

C |------------------------------------------
G |------------------------------------------
Eb|--------------777-55--------------------5-
Bb|7777-222-3333-777-55--7777-222-3333-777-5-
F |7777-222-3333-777-55--7777-222-3333-777-5-
C |5555-000-1111-555-33--5555-000-1111-555-3-

Chorus:

2x

C |----------------------------------------------------------------------
G |----------------------------------------------------------------------
Eb|----------------------------------------------------------------------
Bb|77777777-55555555-33333333-22222222-77777777-55555555-8888888888888888
F |77777777-55555555-33333333-22222222-77777777-55555555-8888888888888888
C |55555555-33333333-11111111-00000000-55555555-33333333-6666666666666666

2nd Verse:

C |-------------------------------------
G |-------------------------------------
Eb|999999999^9-999999999^9-999999999^9-5
Bb|-------------------------------------
F |-------------------------------------
C |-------------------------------------

C |------------------------------------------
G |------------------------------------------
Eb|------------------55--------------------5-
Bb|7777-222-3333-777-55--7777-222-3333-777-5-
F |7777-222-3333-555-55--7777-222-3333-777-5-
C |5555-000-1111-555-33--5555-000-1111-555-3-

Chorus:

2x

C |----------------------------------------------------------------------
G |----------------------------------------------------------------------
Eb|----------------------------------------------------------------------
Bb|77777777-55555555-33333333-22222222-77777777-55555555-8888888888888888
F |77777777-55555555-33333333-22222222-77777777-55555555-8888888888888888
C |55555555-33333333-11111111-00000000-55555555-33333333-6666666666666666


2x

C |------------------------------------------
G |------------------------------------------
Eb|------------------55--------------------5-
Bb|7777-222-3333-777-55--7777-222-3333-777-5-
F |7777-222-3333-777-55--7777-222-3333-777-5-
C |5555-000-1111-555-33--5555-000-1111-555-3-


Guitar 1:
C |------------------------------------------
G |------------------------------------------
Eb|------------------55--------------------5-
Bb|7777-222-3333-777-55--7777-222-3333-777-5-
F |7777-222-3333-777-55--7777-222-3333-777-5-
C |5555-000-1111-555-33--5555-000-1111-555-3-


Guitar 2: Solo
C |------19////-------------------------------------------------
G |------------17-13---20-17-13--20-17-13--20-20-20-------------
Eb|-------------------------------------------------20-20-20-20-
Bb|-------------------------------------------------------------
F |-------------------------------------------------------------
C |-------------------------------------------------------------

C |----------------------------------------------------------------
G |-17-17-17--13-13-13--20-20-20------------17-17-17-17-13-13-13-13
Eb|-----------------------------20-20-20-20------------------------
Bb|----------------------------------------------------------------

F |----------------------------------------------------------------
C |----------------------------------------------------------------

Chorus:

2x

C |----------------------------------------------------------------------
G |----------------------------------------------------------------------
Eb|----------------------------------------------------------------------
Bb|77777777-55555555-33333333-22222222-77777777-55555555-8888888888888888
F |77777777-55555555-33333333-22222222-77777777-55555555-8888888888888888
C |55555555-33333333-11111111-00000000-55555555-33333333-6666666666666666

C |--------------------
G |--------------------
Eb|------------------5-
Bb|7777-222-3333-777-5-
F |7777-222-3333-777-5-
C |5555-000-1111-555-3-




Important: The song above is NOT stored on the Chordie server. The original song is hosted at www.xguitar.com. Chordie works as a search engine and provides on-the-fly formatting. Chordie does not index songs against artists/composers will. To remove this song please click here.

This song is displayed as text-only. Transposing and tuning is only available for chordpro-songs.

Login - add to songbook

Rating click stars to rate

Layout
Accuracy

Jango Player

SHARE PAGE  

You need to log in to post comments