Chordie logo


Sad Happy   Cold



Band: Cold
Title: Sad Happy
Album: Year of the Spider
Tunning: C F A# D# G C
Im not to sure about the chorus on this tab. if someone knows it please correct me. thanks.

Verse:
-------------------------------------------------
----3-----3-----3-----3-----3-----3-----3-----3--
--4--4--4--4--4--4--4--4--4--4--4--4--4--4--4--4-
2------2-----0------0----------------------------
--------------------------3----3-----0-----0-----
-------------------------------------------------

Chorus / Bridge
------0------0------0------0
------0------3------3------3
------2------0------2------0
------3------0------2------2
------3------2------0------3


Important: The song above is NOT stored on the Chordie server. The original song is hosted at www.xguitar.com. Chordie works as a search engine and provides on-the-fly formatting. Chordie does not index songs against artists/composers will. To remove this song please click here.

This song is displayed as text-only. Transposing and tuning is only available for chordpro-songs.

Login - add to songbook

Rating click stars to rate

Layout
Accuracy

SHARE PAGE  




You need to log in to post comments