""; ?> Fix You by Coldplay - guitar chords, guitar tabs and lyrics - chordie

Fix You

Coldplay

 D#5D#5D#7MD#7MD#/CD#/CD#D#
E||--------------------|--------------------|--------------------|--------------------||
B||--4--------4--------|--4--------4--------|--4--------4--------|--4--------4--------||
G||--3--------3--------|--3--------3--------|--3--------3--------|--3--------3--------||
D||--1--------1--------|--0--------0--------|--------------------|--------------------||
A||--------------------|--------------------|--3--------3--------|--1--------1--------||
E||--------------------|--3--------3--------|--------------------|--------------------||


Chorus
 G#sus2G#sus2G#sus2D#D#D#D#D#
E||--------------------|--------------------|--------------------|--------------------||
B||--4--------4--------|--4-4------4--------|--4--------4--------|--4-4------4--------||
G||--3--------3--------|--3-3------3--------|--3--------3--------|--3-3------3--------||
D||--------------------|--------------------|--------------------|--------------------||
A||--6--------6--------|--6-6------4--------|--1--------1--------|--1-1------1--------||
E||--4--------4--------|--4-4------3--------|--------------------|--------------------||


Solo

Guitar 1
E||--------------------|--------------------|--------------------|--------------------|
B||--------------------|--------------------|--------------------|--------------------|
G||-8-8-8-8-8-8-8-8-8-8|-8-8-8-8/15-15-15-15|-8-8-8-8-8-8-8-8-8-8|-8-8-8-8/15-15-15-15|
D||--------------------|--------------------|--------------------|--------------------|
A||--------------------|--------------------|--------------------|--------------------|
E||--------------------|--------------------|--------------------|--------------------|
  |--------------------|--------------------|--------------------|--------------------|
  |--------------------|--------------------|--------------------|--------------------|
  |-8-8-8-8-8-8-8-8-8-8|-8-8-8-8/15-15-15-15|-8-8-8-8-8/7-7-7-7-7|-7-7-7-7-7-7-7-7-7--|
  |--------------------|--------------------|--------------------|--------------------|
  |--------------------|--------------------|--------------------|--------------------|
  |--------------------|--------------------|--------------------|--------------------|


Guitar 2
 D#5D#5D#5D#5G#sus2G#sus2G#sus2G#sus2
E||--------------------|--------------------|--------------------|--------------------||
B||--4--------4--------|--4--------4--------|--4--------4--------|--4--------4--------||
G||--3--------3--------|--3--------3--------|--3--------3--------|--3--------3--------||
D||--1--------1--------|--1--------1--------|--------------------|--------------------||
A||--------------------|--------------------|--6--------6--------|--6--------6--------||
E||--------------------|--------------------|--4--------4--------|--4--------4--------||


 D#5D#5D#5D#5D#D#D#D#
  |--------------------|--------------------|--------------------|--------------------||
  |--4--------4--------|--4--------4--------|--4--------4--------|--4--------4--------||
  |--3--------3--------|--3--------3--------|--3--------3--------|--3--------3--------||
  |--1--------1--------|--1--------1--------|--------------------|--------------------||
  |--------------------|--------------------|--1--------1--------|--1--------1--------||
  |--------------------|--------------------|--------------------|--------------------||


James Bryan
Send comments and/or suggestions to jbAg83@hotmail.com

>>>tabbed by Ash and dre.

email= ssetem@essex.ac.uk

ENJOY!:)

Standard tuning

Capo 3

chords:

C - x32010
Cmaj7 - x32000
Am - 002210
C/G - 320013
 F-133211
Intro: C, Cmaj7, Am, C/G
Verse 1:
 CCmaj7AmC/G
                                             When you try your best, but you don't succeed
 CCmaj7AmC/G
                                             When you get what you want, but not what you need

 CCmaj7AmC/G
When you feel so tired, but you can't sleep
C, Cmaj7 ,Am, C/G
Stuck in re - ver - se.

Verse 2:

 CCmaj7AmC/G
When the tears come streaming down your face
 CCmaj7AmC/G
When you lose something you can't replace
 CCmaj7AmC/G
When you love someone, but it goes to waste
C, Cmaj7 ,Am, C/G

Could it be wo - rse?

Chorus:

 FG
Lights will gu - ide you home
 FG
                                            And ig - nite your bones

 FG
And I will try to fix you

Instrumental:

C, Cmaj7 ,Am, C/G x 2 ( can be picked to mimic piano)

Verse 3:

 CCmaj7AmC/G
And high up above or down below

 CCmaj7AmC/G
                                            When you're too in love to let it go

 CCmaj7AmC/G
If you never try, then you'll never know
C,Cmaj7,Am, C/G
Just what you're wor - th

Chorus:

 FG
Lights will gu - ide you home
 FG
                                            And ig - nite your bones

 FG
And I will try to fix you

Bridge:

Chords used for bridge only !!!
(Hammer Pinky where you think appropriate)

C - x32013 ( notice pinky at fret 3)
C/G - 320013
G* - 320003

Instrumental - C, C/G , C , C/G , G* x4

 CC/G
Tears stream, down your face
C C/G G*

When you lose something you cannot replace
 CC/G
                                            Tears stream down your face
C C/G G*
And I.........

 CC/G
Tears stream, down your face
C C/G G*

I promise you that I'll learn from my mistakes
 CC/G
                                            Tears stream down your face
C C/G G*
And I.........

Final Chorus: (quite slow, sung 1 octave lower)

 FG
Lights will gu - ide you home
 FG
                                            And ig - nite your bones

 FGC
And I will try to fix you

If you find any corrections email them to ssetem@essex.ac.uk

work of ash and andre


Am C C/G Cmaj7 D# D#/C D#5 F G
variations - click chord images
Transpose chords:
Tuning:
Cool service:
View: Size:
A  A  A
Rating:
Layout:
  • Currently 2.8/5 Stars.
  • 1
  • 2
  • 3
  • 4
  • 5
 
Accuracy:
  • Currently 2.8/5 Stars.
  • 1
  • 2
  • 3
  • 4
  • 5
 
click stars to rate
Chordie recommends:
Check out these online guitar lessons
Songbook:
Login to add this song to your songbook
Support the artist
Preview/buy this song
MSN Music
Why this non-profit ad?

 
login to add comments/video/corrections