eToCache5 = ""; ?> Compliment by Collective Soul - guitar chords, guitar tabs and lyrics - chordie

Compliment

Collective Soul

 DDs4BmGAF#7
F---2---3---2---3---0---2--
C---3---3---3---3---2---5--
Ab--2---2---4---0---2---3--
Eb--0---0---4---0---2---2--
Bb----------2---2---0---4--
F---------------3-------2--


Intro:
||:----D----|---Ds4---:||


First chorus
 BmGDA
F---||--------7p5-7p5---|-------7p5-7p5-|-------7p5-7p5-|-------7p5-7p5----||---
C---||--7---------------|-8-------------|-7-------------|-5----------------||---
Ab--||*-----------------|---------------|---------------|-----------------*||---
Eb--||*-----------------|---------------|---------------|-----------------*||---
Bb--||------------------|---------------|---------------|------------------||---
F---||------------------|---------------|---------------|------------------||---


 F#7G
F---------------|-----------||
C---------7-----|-8---------||
Ab--6-----------|-7---7-----||
Eb--4-----------|-5---------||
Bb--4-----------|-5---------||
F---------------|-----------||


Verse
 DDsus4
F---||--------------|----------------||
C---||--------------|----------------||
Ab--||*-------2-----|-------2-------*||
Eb--||*-----4-------|-----5---------*||
Bb--||----5---------|---5------------||
F---||--------------|----------------||


Chorus
 BmGDA
F---||----------7p5-7p5-|---------7p5-7p5-|---------7p5-7p5-|-----------5-5-5---
C---||------5-----------|-----5-----------|-----5-----------|-----5-----5-5-5---
Ab--||*-6h7---7---------|-6h7---7---------|-6h7---7---------|-6h7-------6-6-6---
Eb--||*-----------------|-----------------|-----------------|-------------------
Bb--||------------------|-----------------|-----------------|-------------------
F---||------------------|-----------------|-----------------|-------------------


 F#7G
F----||-------------------|-------------||
C----||---7h8-7-----------|-----8-------||
Ab--*||-----------6-------|---7---------||
Eb--*||-------------------|-9-----------||
Bb---||-------------------|-------------||
F----||-------------------|-------------||


Interlude

 DDsus4DDsus4DDsus4DDsus4
F---------|-------|-------|------------|------------|-------|-------|-----------
C---------|-------|-------|------------|------------|-------|-------|-----------
Ab--11~~~-|-12~~~-|-11~~~-|-(11)-------|-11\9/11~~~-|-12~~~-|-14~~~-|-(14)------
Eb--------|-------|-------|------12-14-|------------|-------|-12----|-----------
Bb--------|-------|-------|------------|------------|-------|-------|-----------
F---------|-------|-------|------------|------------|-------|-------|-----------















A Bm D Dsus4 F#7 G
variations - click chord images
Transpose chords:
Tuning:
Cool service:
View: Size:
A  A  A
Rating:
Layout:
  • Currently 3.6/5 Stars.
  • 1
  • 2
  • 3
  • 4
  • 5
 
Accuracy:
  • Currently 2.2/5 Stars.
  • 1
  • 2
  • 3
  • 4
  • 5
 
click stars to rate
Chordie recommends:
Learn how to play guitar at JamPlay.com
Songbook:
Login to add this song to your songbook
Support the artist
Preview/buy this song
MSN Music
Why this non-profit ad?

 
login to add comments/video/corrections