Guitar Tabs, Chords and Lyrics


Jane Doe    Converge



Band: Converge
Title: Jane Doe
Tabber: Sqweeky

D --------------|-----------------------------------------------------|
A -----3--------|---------3-------------6p3--3------------------------|
F -------3------|-----------3-2-----3p2------5b-5p3p0-----7-7--3-3-3--|
C ---3-----3--3-|-------0------------------------------8--8-8--7-7-3--|
G -1------------|-----1-----------------------------------------------|
C --------------|-8\4------------4------------------------------------|

D ----------------------------------------------------|
A ----------------------------------------------------|
F -3h5------------------------------------------------|
C -3h5-0----------------------------------------------|
G -----0----0--------------------------------|


Important: The song above is NOT stored on the Chordie server. The original song is hosted at www.xguitar.com. Chordie works as a search engine and provides on-the-fly formatting. Chordie does not index songs against artists'/composers' will. To remove this song please click here.

This song is displayed as text-only. Transposing and tuning is only available for chordpro-songs.

Login - add to songbook

Rating click stars to rate

Layout
Accuracy

SHARE PAGE  




You need to log in to post comments