Guitar Tabs, Chords and Lyrics


Lowest Common Denominator    Converge



drop d



w/o distortion
e|--------------------|
B|------13-----13-----|
G|---910----910--109--|
D|--7-----------------|
A|--------------------|
E|-0------------------|

w/o distortion
e|------|
B|------|
G|--10--|
D|--7---|
A|------|
E|------|

distortion
e|-------------|-----------------------|
B|-------------|-----------------------|
G|-------------|-----------------------|
D|-------------|-----------------------|
A|-------------|-----------------------|
E|-2--2--1--2--|--2--1--2--4--2--1--2--|

distortion
e|-----------------------|
B|-----------------------|
G|-----------------------|
D|-----------------------|
A|-----------------------|


Important: The song above is NOT stored on the Chordie server. The original song is hosted at www.xguitar.com. Chordie works as a search engine and provides on-the-fly formatting. Chordie does not index songs against artists/composers will. To remove this song please click here.

This song is displayed as text-only. Transposing and tuning is only available for chordpro-songs.

Login - add to songbook

Rating click stars to rate

Layout
Accuracy

SHARE PAGE  




You need to log in to post comments