"yes"; ?> Only Women Bleed by Alice Cooper - guitar chords, guitar tabs and lyrics - chordie

Only Women Bleed

Alice Cooper

||---4-----4-----4-----4-----4-----|--2-----2-----2-----2-----2-----|

||o----5-----5-----5-----5-----5---|----2-----2-----2-----2-----2---|

||-------4-----4-----4-----4-----4-|------3-----3-----3-----3-----3-|

||---------------------------------|--------------------------------|

||o--------------------------------|--------------------------------|

||-0-------------------------------|0-------------------------------|

 |---2-----2-----2-----2-----2-----|--0-----0-----0-----0-----0-----|

 |-----2-----2-----2-----2-----2---|----0-----0-----0-----0-----0---|

 |-------2-----2-----2-----2-----2-|------1-----1-----1-----1-----1-|

 |---------------------------------|--------------------------------|

 |---------------------------------|--------------------------------|

 |-0-------------------------------|0-------------------------------|

 |---4-----4-----4-----4-----4-----|--2-----2-----2-----2-----2-----|

 |-----5-----5-----5-----5-----5---|----2-----2-----2-----2-----2---|

 |-------4-----4-----4-----4-----4-|------3-----3-----3-----3-----3-|

 |---------------------------------|--------------------------------|

 |---------------------------------|--------------------------------|

 |-0-------------------------------|0-------------------------------|

 |---2-----2-----2-----2-----2-----|--0-----0-----0-----0-----0-----|

 |-----2-----2-----2-----2-----2---|----0-----0-----0-----0-----0---|

 |-------2-----2-----2-----2-----2-|------1-----1-----1-----1-----1-|

 |---------------------------------|--------------------------------|

 |---------------------------------|--------------------------------|

 |-0-------------------------------|0-------------------------------|


 DAEAbm7Gm7Gbm7Bsus4
|-2---2---0---0---|0---0---0---0----|4---4---3---3---|2---2---0-------|
|-3---3---2---2---|0---0---0---0----|4---4---3---3---|2---2---0-------|
|-2---2---2---2---|1---1---1---1----|4---4---3---3---|2---2---4-------|
|-0---0---2---2---|2---2---2---2----|4---4---3---3---|2---2---4-------|
|---------0---0---|2---2---2---2----|6---6---5---5---|4---4---2-------|
|-----------------|0---0---0---0-2-3|4---4---3---3---|2---2-----------|

She cries alone at night too often He smokes and drinks and don't
come
home at all. Only
women
CHORUS:
|---4-----4-----4-----4-----4-----|--2-----2-----2-----2-----2-----|
|-----5-----5-----5-----5-----5---|----2-----2-----2-----2-----2---|
|-------4-----4-----4-----4-----4-|------3-----3-----3-----3-----3-|
|---------------------------------|--------------------------------|
|---------------------------------|--------------------------------|
|-0-------------------------------|0-------------------------------|

bleed Only women bleed Only women
|---2-----2-----2-----2-----2-----|--0-----0-----0-----0-----0------||
|-----2-----2-----2-----2-----2---|----0-----0-----0-----0-----0---o||
|-------2-----2-----2-----2-----2-|------1-----1-----1-----1-----1--||
|---------------------------------|---------------------------------||
|---------------------------------|--------------------------------o||
|-0-------------------------------|0--------------------------------||

Ble______________________________ed.
INTERLUDE:
|----------------|----------------|----------------|
|----------------|----------------|----------------|
|5---5---5---5---|7---7---7---7---|9---9---9---9---|
|----------------|----------------|----------------|
|3---3---3---3---|5---5---5---5---|7---7---7---7---|
|----------------|----------------|----------------|

Black eyes All of the time don't spend a dime
|--------------------|------------------|------------------|
|--------------------|------------------|10---10-----------|
|-11---11---9---11---|12---12---7---7---|----------7---7---|
|--------------------|------------------|-7----7-----------|
|--9----9---7----9---|10---10---5---5---|----------5---5---|
|--------------------|------------------|------------------|

clean up the grime and you there down on your knees
|------------------|8---8---10---10---|
|12---12-----------|------------------|
|----------7---7---|5---5----7----7---|
|-9----9-----------|------------------|
|----------5---5---|------------------|
|------------------|------------------|

beggin' me please to come watch me bleed!!!
BRIDGE:
 EBEABEBEABEBEABEBEABE
|0-------0-------|0-------0-------|0-------0-------|0-------0-------|0---
|0--x4--x0---2-4-|0--x4--x0---2-4-|0--x4--x0---2-4-|0--x4--x0---2-4-|0---
|1--x4--x1---2-4-|1--x4--x1---2-4-|1--x4--x1---2-4-|1--x4--x1---2-4-|1---
|2--x4--x2---2-4-|2--x4--x2---2-4-|2--x4--x2---2-4-|2--x4--x2---2-4-|2---
|2--x2--x2---0-2-|2--x2--x2---0-2-|2--x2--x2---0-2-|2--x2--x2---0-2-|2---
|0------x0-------|0------x0-------|0------x0-------|0------x0-------|0---

CHORUS:
||---4-----4-----4-----4-----4-----|--2-----2-----2-----2-----2-----|
||o----5-----5-----5-----5-----5---|----2-----2-----2-----2-----2---|
||-------4-----4-----4-----4-----4-|------3-----3-----3-----3-----3-|
||---------------------------------|--------------------------------|
||o--------------------------------|--------------------------------|
||-0-------------------------------|0-------------------------------|

bleed Only women bleed Only women
 3
times 
|---2-----2-----2-----2-----2-----|--0-----0-----0-----0-----0-----||
|-----2-----2-----2-----2-----2---|----0-----0-----0-----0-----0--o||
|-------2-----2-----2-----2-----2-|------1-----1-----1-----1-----1-||
|---------------------------------|--------------------------------||
|---------------------------------|-------------------------------o||
|-0-------------------------------|0-------------------------------||

bleed Only women bleed Only women
|---4-----4-----4-----4-----4-----|--2-----2-----2-----2-----2-----|
|-----5-----5-----5-----5-----5---|----2-----2-----2-----2-----2---|
|-------4-----4-----4-----4-----4-|------3-----3-----3-----3-----3-|
|---------------------------------|--------------------------------|
|---------------------------------|--------------------------------|
|-0-------------------------------|0-------------------------------|
|---2-----2-----2-----2-----2-----|0---------||
|-----2-----2-----2-----2-----2---|0---------||
|-------2-----2-----2-----2-----2-|1---------||
|---------------------------------|----------||
|---------------------------------|----------||
|-0-------------------------------|----------||















A Abm7 B Bsus4 D E Gbm7 Gm7
variations - click chord images
Transpose chords:
Tuning:
Cool service:
View: Size:
A  A  A
Rating:
Layout:
  • Currently 2.6/5 Stars.
  • 1
  • 2
  • 3
  • 4
  • 5
 
Accuracy:
  • Currently 2.6/5 Stars.
  • 1
  • 2
  • 3
  • 4
  • 5
 
click stars to rate
Chordie recommends:
Get acoustic guitar lessons and electric guitar lessons at JamPlay.com
Songbook:
Login to add this song to your songbook
Support the artist
Preview/buy this song
MSN Music
Why this non-profit ad?

 
login to add comments/video/corrections