Guitar Tabs, Chords and Lyrics


Damned For All Time    Corrosion Of Conformity



SONG: ***ed For All Time
ARTIST: Corrosion Of Conformity
ALBUM: Blind
RELEASE DATE: 1992
TUNING: Tune 1 whole step down (D)

INTRO:
d |----------------------------------------------------|
A |----------------------------------------------------|
F |----------------------------------------------------|
C |----------------------------------------------------|
G |----------------------------3---4---6---------------|
D |-5---4-----5----54----5-----1---2---4---------------|

d |----------------------------------------------------|
A |----------------------------------------------------|
F |----------------------------------------------------|
C |----------------------------------------------------|
G |---3---4---6----5-----3---4---6-----------2---------|
D |---1---2---4----3-----1---2---4----0--0---0---------|   x2

d |----------------------------------------------------|
A |----------------------------------------------------|
F |-------------------------------------8--------7-----|
C |-------------------------------------8--------7-----|
G |--3--4--6----5-----3--4--6-----------6--------5-----|
D |--1--2--4----3-----1--2--4----0--0------0--0--------|

MAIN RIFF:
GUITAR 1:
d |----------------------------------------------------|
A |----------------------------------------------------|
F |----------------------------------------------------|
C |---2--2-------2--------2---2------------------------|
G |---2--2-------2--------2---2------4h5--2p0----------|
D |--------0--0-----0--0----0---0--0-------------------|

GUITAR 2:
d |----------------------------------------------------|
A |----------------------------------------------------|
F |----------------------------------------------------|
C |---2-------5-------8-------5------------------------|
G |---2-------5-------8-------5------------------------|
D |---0-------3-------6-------3------------------------|

ALL GUITARS:
d |----------------------------------------------------|
A |----------------------------------------------------|
F |----------------------------------------------------|
C |-------------5---4-------------3--3--3--------------|
G |---5---4-----3---2-------------1--1--1-------4---4--|
D |---3---2---------------0--0--------------0---2---2--|

VERSE:
GUITAR 1:
d |----------------------------------------------------|
A |----------------------------------------------------|
F |----------------------------------------------------|
C |---2--2-------2--------2---2------------------------|
G |---2--2-------2--------2---2------4h5--2p0----------|
D |--------0--0-----0--0----0---0--0-------------------|

GUITAR 2:
d |----------------------------------------------------|
A |----------------------------------------------------|
F |----------------------------------------------------|
C |---2-------5-------8-------5------------------------|
G |---2-------5-------8-------5------------------------|
D |---0-------3-------6-------3------------------------|

ALL GUITARS:
d |----------------------------------------------------|
A |----------------------------------------------------|
F |----------------------------------------------------|
C |-------------5---4-------------3--3--3--------------|
G |---5---4-----3---2-------------1--1--1-------4---4--|
D |---3---2---------------0--0--------------0---2---2--|

This is played at the “...History repeats itself...”
d |----------------------------------------------------|
A |----------------------------------------------------|
F |----------------------------------------------------|
C |------------5---4------3-3--------------------------|
G |---5---4----3---2------1-1--------------------------|
D |---3---2--------------------------------------------|

The second time through at the “...History Repeats itself...”
part play this riff
d |----------------------------------------------------|
A |----------------------------------------------------|
F |----------------------------------------------------|
C |----------5---4---------3--3--3---------------------|
G |---5---4--3---2---------1--1--1---4-/-5---5---5-/-4-|
D |---3---2----------0--0------------2-/-3---3---3-/-2-|

PRE-CHORUS:
d |----------------------------------------------------|
A |----------------------------------------------------|
F |----------------------------------------------------|
C |---2------------------------------------5-----------|
G |---2---------------5---7p5-------------------7------|
D |---0-----5-/-7-------------------7------------------|

d |----------------------------------------------------|
A |----------------------------------------------------|
F |----------------------------------------------------|
C |--2-------------------------------------------------|
G |--2-------------5-----------------------------------|
D |--0----5-/-7---------7--5--3------------------------|

d |----------------------------------------------------|
A |----------------------------------------------------|
F |----------------------------------------------------|
C |--2----------------------------------5--------------|
G |--2-------------5---7p5--------------------7--------|
D |--0----5-/-7------------------7---------------------|

d |----------------------------------------------------|
A |----------------------------------------------------|
F |----------------------------------------------------|
C |--2-----------------------5-------5--/--7-----------|
G |--2-------------5---------5-------5--/--7-----------|
D |--0----5-/-7---------0----3---0---3--/--5-----------|

CHORUS:
FIGURE A:
d |----------------------------------------------------|
A |----------------------------------------------------|
F |--5-------5--5--5----4--4------4--------------------|
C |--5-------5--5--5----4--4------4--------------------|
G |--3--3-3--3--3--3----2--2--2-2-2--------------------|
D |----------------------------------------------------|

d |----------------------------------------------------|
A |----------------------------------------------------|
F |---------------7-----6------------------------------|
C |---------------7-----6------------------------------|
G |---5----8------5-----4------------------------------|
D |---3----6-------------------------------------------|

Repeat FIGURE A until the lyrics “...***ed for all time...”
come in than play,
d |----------------------------------------------------|
A |----------------------------------------------------|
F |------------8----10---------------------------------|
C |------------8----10---------------------------------|
G |---5---8----6-----8---------------------------------|
D |---3---6--------------------------------------------|

After the MAIN RIFF and VERSE when the song speeds up,
this is played
d |----------------------------------------------------|
A |----------------------------------------------------|
F |--6----------------7-7-7-7-7-7-7-7------------------|
C |--6----------------7-7-7-7-7-7-7-7------------------|
G |--4-----5-/-7--7---5-5-5-5-5-5-5-5------------------|
D |--------3-/-5--5------------------------------------|
                  Repeat

d |----------------------------------------------------|
A |----------------------------------------------------|
F |----------------------------------------------------|
C |--6---8---7-----6---8---7---------------------------|
G |--4---6---5-----4---6---5---------------------------|
D |----------------------------------0-----------------|    x4

d |----------------------------------------------------|
A |----------------------------------------------------|
F |----------------------------------------------------|
C |------6--5-------5--4-----3-------8-----------10----|
G |--5---4--3---5---3--2--5--1---5---6------7----8-----|
D |--3----------3---------3------3----------5----------|
Slow part of the interlude
		
d |----------------------------------------------------|
A |----------------------------------------------------|
F |----------------------------------------------------|
C |----------------------------------------------------|
G |--2--2--2--5-------4-------4-/-5--5--5--4--4-2------|
D |--0--0--0--3--0-0--2--0-0--2-/-3--3--3--2--2-0------|
This riff is started out with bass than the guitars come in,
listen to the song for the timing, this is a very fast riff

d |----------------------------------------------------|
A |----------------------------------------------------|
F |----------------------------------------------------|
C |--6---8---7-----6---8---7---------------------------|
G |--4---6---5-----4---6---5---------------------------|
D |----------------------------------0-----------------|    x4

d |----------------------------------------------------|
A |----------------------------------------------------|
F |----------------------------------------------------|
C |----------------------------------------------------|
G |--3--3--3--6--6--6--5--5--5--5-/-6--6--6--5--5--3---|
D |--1--1--1--4--4--4--3--3--3--3-/-4--4--4--3--3--1---|
Last riff of the song, which progressively slows down

During the last riff, there is some lead guitar playing
in the background, but other than that this song is done.


Important: The song above is NOT stored on the Chordie server. The original song is hosted at www.xguitar.com. Chordie works as a search engine and provides on-the-fly formatting. Chordie does not index songs against artists'/composers' will. To remove this song please click here.

This song is displayed as text-only. Transposing and tuning is only available for chordpro-songs.

Login - add to songbook

Rating click stars to rate

Layout
Accuracy

SHARE PAGE  




You need to log in to post comments