Chordie logo


Drowning In A Daydream    Corrosion Of Conformity



Corrosion Of Conformity - Drowning in a Daydream

visit http://www.prairienet.org/~kiadm/coctabs for more tabs

Tune down again to D.

Intro

d |---------------|        d |------------|
A |-------2-b-r_0-|        A |------------|
F |-2--2----------|        F |-4----------|
C |-2--2----------|   X 3  C |-4----------|
G |-0--0----------|        G |-2----------|
D |---------------|        D |------------|


   Guitar 1
d |-------------------|-----------------------|  The 0 in () is played
A |-------------------|-------------3b-2b-(0)-|  only the first time.
F |-----------------2-|-----2--4--2-----------|
C |-----4__2_0----2---|-----------------------|
G |-------------0-----|-----------------------|
D |-------------------|-----------------------|
  |
  |Guitar2
d |---------------------|------------------------|
A |---------------------|------------------------|
F |---------------------|----------------------7-|
C |-7--7-----7-10-10-10-|--10-9-9-9-----10-9-7-7-|
G |-7--7-----7-10-10-10-|--10-9-9-9-----10-9-7-5-|
D |-5--5-----5-8--8--8--|--8--7-7-7-----8--7-5---|

For the verses you need HEAVY chorus effect....that goes   (no chorus here)
d |---------------------------|-------------0--------3--5-|--------------|
A |-------------------------1-|----------------2----------|--------------|
F |----------------------2----|---------------------------|---------7----|
C |--------------5------------|---------------------------|---------7----|
G |-----------7---------------|---------------------------|---------5----|
D |---------------------------|---------------------------|--------------|

Then it goes back to the 2nd guitar part only! for a while and end with..
d |--------------------------------------------------------------------|
A |------------------------------------------------------------2-b-r_0-|
F |------------------------------------------------7-------------------|
C |-7--7--7-7-10-10-10-10--10-10-9-9-9-9--9-9--9-7-7------7------------|
G |-7--7--7-7-10-10-10-10--10-10-9-9-9-9--9-9--9-7-5------7------------|
D |-5--5--5-5-8--8--8--8---8--8--7-7-7-7--7-7--7-5--------5------------|

The chorus goes...
d |--------------------|--------------------|-----------------------|
A |--------------------|--------------------|-----------------------|
F |--------------------|-----------------9--|-----------------------|
C |-9-------7-------2--|-9-------7-------9--|-9-------12---------2--|
G |-9-------7-------2--|-9-------7-------7--|-9-------12---------2--|
D |-7---7-7-5---5-5-0--|-7---7-7-5---5-5----|-7---7-7-10---10-10-0--|
      m ---]  m ---]       m ---]  m ---]       m ---]   m -----]

d |-------------------------|
A |----------------------12-|
F |-12----12----12----14----|
C |----12----12----12-------|
G |-------------------------|
D |-------------------------|

Then repeat

The end goes something like
C |-9--9--9--9--9--2--7--9--| over and over again
G |-9--9--9--9--9--2--7--7--|


Important: The song above is NOT stored on the Chordie server. The original song is hosted at www.xguitar.com. Chordie works as a search engine and provides on-the-fly formatting. Chordie does not index songs against artists/composers will. To remove this song please click here.

This song is displayed as text-only. Transposing and tuning is only available for chordpro-songs.

Login - add to songbook

Rating click stars to rate

Layout
Accuracy

SHARE PAGE  




You need to log in to post comments