Guitar Tabs, Chords and Lyrics


Miami   Counting Crows

[irc undernet #bellevue] 


[Verse] 
[D]I Guess I think I feel alright
[Bm]You come circling through the light
[G]The skyline baby is bright[D] tonight
[D]What more perfect rendezvous?
[Bm]The sundown paints the shadows through
[G]the Daylight, Amy, on what we do
[Cborus] 
[A]It looks like [D]darkness [D2]to me ([Bm]oh)
Drifting d[G]own into Mia[D]mi
[Verse2] 
[D]Can I say          Bm
"I wish that this weather would never leave"?
It just gets [G]hard to believe
That God sent this [D]angel
to watch over me

[D]Oh my angel,
she don?t receive my [Bm]calls

Says I?m to dumb to ...(fuck)
To dumb to [G]fight

To dumb to save
Well, maybe I don?t need no [D]angel at all


[Cborus] 
[A]It looks like [D]darkness [D2]to me ([Bm]oh)
Drifting d[G]own into Mia[D]mi
[A]She could pull the [D]sunlight [D2]through me  [Bm]
Coming d[G]own, into Mia[D]mi
[Miami]                                     
[Solo] :
e--------------------------------------------------------------------------------------------------------------------|
B--------------------------------------------------------------------------------------------------------------------|
G--------------------------------------------------------------------------------11~--11~--11~--11~11--11------------|
D-------------------------------------------12--12--12~14--12~14--12~14--12--12---------------------------11--12-----|
A--------5--5--5--7--7~9--10--9--10~12--12---------------------------------------------------------------------------|
E--5--7--------------------------------------------------------------------------------------------------------------|
e--------------------------------------------------------------------------------------------------------------------|
B---------------------------------------------------------------10---------10---------10---------10---------10-------|
G--------------------------------------------------------11~12------11~12------11~12------11~12------11~12-----------|
D--11--12--11--------------------------------------------------------------------------------------------------------|
A--------------12--9--10--9--10--9-----------------------------------------------------------------------------------|
E-----------------------------------10--9--10--9--9--10--------------------------------------------------------------|
e----------------------10------10--14------14--10~12--10~12--10------------------------------------------------------|
B------10--12------12------12----------10----------------------------------------------------------------------------|
G--11----------11------------------------------------------------10~12--12~14--14--12~14--12--10--10-----------------|
D--------------------------------------------------------------------------------------------------------------------|
A--------------------------------------------------------------------------------------------------------------------|
E--------------------------------------------------------------------------------------------------------------------|
e---------------------------------------------------------------|
B--12--12--10--10--8--8-----------------------------------------|
G------------------------11--11--9--9---------------------------|
D--------------------------------------12--12--11--12-----------|(let ring)
A---------------------------------------------------------------|
E---------------------------------------------------------------|



[D]Make a circle in the [Bm]sand
Make a halo with your hands
[G]I'll Make a place for you[D] to land


(End]

[D]The bus is running, it?s time to l[Bm]eave

The summer?s gone, so are we
[A]So come on baby, let?s go[G] shut it down
in New O[D]rleans.
Come on [Bm]baby, lets go[A] shut it down
In new o[G]rleans
Come on [D]Baby, come on [Bm]baby
lets go[A] shut it down, in new o[G]rleans.
Come on Come on Come[D] on
Come on come on come[Bm] on
Lets go[A] shut it down
in New O[G]rleans
Come on [D]baby
Come on [Bm]baby
Lets go[A] shut it down now[G]...

Important: The song above is NOT stored on the Chordie server. The original song is hosted at www.xguitar.com. Chordie works as a search engine and provides on-the-fly formatting. Chordie does not index songs against artists'/composers' will. To remove this song please click here.

Text color:
Chord color:
Chord grids: 
Font size:    
Page size: 

A Bm D D2 G
variations - click chord images

Login - add to songbook

Transpose chords

Tuning

Rating click stars to rate

Layout
Accuracy

SHARE PAGE  




You need to log in to post comments