Guitar Tabs, Chords and Lyrics


Lustmord and Wargasm (The Lick of Carnivorous Winds)    Cradle Of Filth



Notation:
.. = palm mute
th = thrill
v~ = vibrato with vibraslam
~ = vibrato with finger
h = hammer-on
 > = release
X = dump
t = tap
/ = slide up
\ = slide down
= = Hold

Note:
Tune down one whole step!! (D,G,C,F,A,d)
There are many "I'm not sure"-riffs, so try them and tell me what you think!
___________________________________________________________

Keyboard intro


Riff 1 Cd time 0:54
Six times

|--------------------------------------------------------------|
|--------------------------------------------------------------|
|--------------------------------------------------------------|
|-12-9th--12-11-12-9th--12-11-12-------12-11-12-------12-------|
|-10-7th--10-9--10-7th--10-9--10-12th--10-9--10-10th--10-10th--|
|--------------------------------10th-----------8th------8th---|


Riff 2 Cd time 1:43
Once

|--------------------------------|
|--------------------------------|
|--------------------------------|
|-9--7-9--7-9----9--7-9--7-9--\--|
|-7--5-7--5-7----7--5-7--5-7--\--|
|--------------------------------|


Riff 3 Cd time 1:48
Three times

|----------------------------------------------------------
|----------------------------------------------------------
|----------------------------------------------------------
|----------5555-4444----------5555-4444----------5555-4444-
|-33333333-----------33333333-----------33333333-----------
|----------------------------------------------------------

-----------------------------------------------------------
-----------------------------------------------------------
-----------------------------------------------------------
---------5555-4444--------------------------5555-4444------
33333333-----------777777-55-777777-55-7777-----------5555-
-----------------------------------------------------------

----------------------------------------|
----------------------------------------|
----------------------------------------|
-------------------------5555-4444------|
777777-55-777777-55-7777-----------5555-|
----------------------------------------|

Guitar 2 plays this on 3rd time Cd time 2:09

|----------------------------------------------------------
|----------------------------------------------------------
|----------------------------------------------------------
|----------5555-4444----------5555-4444----------5555-4444-
|-33333333-----------33333333-----------33333333-----------
|----------------------------------------------------------

-----------------------------------------------------------
-----------------------------------------------------------
--------------4444-----------------------------------------
---------5555-------------------------------5555-4444------
33333333-----------777777-55-777777-55-7777-----------5555-
-----------------------------------------------------------

--------------------------------------------------------|
--------------------------------------------------------|
--------------------------------------------------------|
-----------------------------------------9999-7777------|
101010101010-99-101010101010-99-10101010-----------9999-|
--------------------------------------------------------|


Riff 4b Cd time 2:19
Guitar 1
Once

|-----------------------------------------------------------------
|--------------------------8888-7777------------------------------
|-999999-77-999999-77-9999-----------7777-121212121212-1111-121212
|-----------------------------------------------------------------
|-----------------------------------------------------------------
|-----------------------------------------------------------------

------------------------------------------------|
---------------------12121212-10101010----------|
121212-1111-12121212-------------------11111111-|
------------------------------------------------|
------------------------------------------------|
------------------------------------------------|

Guitar 2
Twice

|-----------------------------------------|
|-----------------------------------------|
|-----------------------------------------|
|--------------------------5555-4444------|
|-777777-55-777777-55-7777-----------5555-|
|-----------------------------------------|


Riff 5 Cd time 2:24
Guitar 1
Once

|-------------------------------------------------------|
|-------------------------------------------------------|
|-------------------------------------------------------|
|------9--7--5----7--9--7--5--------5--4-------4--2--0--|
|-7----------------------------3----------2-------------|
|-------------------------------------------------------|

Guitar 2
Once

|-------------------------------------------------------|
|-------------------------------------------------------|
|-9----------------------------5----------4-------------|
|-9----------------------------5----------4-------------|
|-7----------------------------3----------2-------------|
|-------------------------------------------------------|


Riff 6 Cd time 2:30
Not sure about this one... Listen to the strums
Four times

|----------------------------------------------|
|----------------------------------------------|
|----------------------------------------------|
|----------------------------------------------|
|-6-STRUM/7-6-STRUM-9-6-STRUM/7\5--5-5-\3--3-3-|
|-4------/5-4-------7-4------/5\3--3-3-\1--1-1-|


Riff 7 Cd time 2:51
Guitar 1
Twice

|------------------------------------------|
|------------------------------------------|
|------------------------------------------|
|-7th--8-7-8-7th--8-7-10-7th-8-7-8-6th-5th-|
|------------------------------------------|
|------------------------------------------|

Guitar 2
Twice

|-----------------------------------------------|
|-----------------------------------------------|
|-----------------------------------------------|
|-----------------------------------------------|
|-7-STRUM/8-7-STRUM-10-7-STRUM/8\6--6-6-\5--5-5-|
|-5------/6-5-------8--5------/6\4--4-4-\3--3-3-|


Riff 8 Cd time 3:01
Twice

|-----------------------------------------------|
|-----------------------------------------------|
|-----------------------------------------------|
|-----------------------------------------------|
|-8-STRUM/9-8-STRUM-11-8-STRUM/9\7--7-7-\6--6-6-|
|-6------/7-6-------9--6------/7\5--5-5-\4--4-4-|


Riff 5b Cd time 3:12
Guitar 1 TREMOLO ALL THE WAY
Twice

|-------------------------------------------------------|
|-------------------------------------------------------|
|-------------------------------------------------------|
|------9--7--5----7--9--7--5--------5--4-------4--2--0--|
|-7----------------------------3----------2-------------|
|-------------------------------------------------------|

Guitar 2 TREMOLO ALL THE WAY
Once

|-------------------------------------------------------|
|-------------------------------------------------------|
|-9----------------------------5----------4-------------|
|-9----------------------------5----------4-------------|
|-7----------------------------3----------2-------------|
|-------------------------------------------------------|


Riff 5c Cd time 3:23
Guitar 1 TREMOLO ALL THE WAY
Twice

|---------------------------------------------------------|
|---------------------------------------------------------|
|---------------------------------------------------------|
|------9--7--5----7--9--7--5-------9--7--5----7--9--7--5--|
|-7-------------------------------------------------------|
|-----------------------------8---------------------------|

Guitar 2 TREMOLO ALL THE WAY
I know this isn't right. If you have better, please send it to me!
Twice

|-------------------------------------------------------------|
|-------------------------------------------------------------|
|-------------------------------------------------------------|
|------10--9--7----9--10--9--7-------10--9--7----9--10--9--7--|
|-7-----------------------------------------------------------|
|-------------------------------8-----------------------------|


Riff 9 Cd time 3:33
Here are the chords. Listen how to play them.
Four times

|---------------------------------------|
|---------------------------------------|
|---------------------------------------|
|---------------------6-STRUM-7\6-STRUM-|
|-6\5-STRUM-6\5-STRUM-4-------5\4-------|
|-4\3-------4\3-------------------------|


Fill 1 Cd time 3:55

|-----|
|-----|
|-----|
|-----|
|-5-\-|
|-3-\-|


Riff 10 Cd time (Fade in 4:13) 4:16
Guitar 1
Ten times, then fade out

|---------------------------------|
|-9-8-9-8-9-8-9-8-9-8-9-8-9-8-9-8-|
|---------------------------------|
|---------------------------------|
|---------------------------------|
|---------------------------------|

Guitar 2
Four times
Play this slowly...

|-------------------------|
|-------------------------|
|-------------------------|
|-5--5--5--5--6--6--2--2--|
|-5--5--5--5--6--6--2--2--|
|-3--3--3--3--4--4--0--0--|

Guitar 2 Cd time 4:37
Twice

|---------------------|
|---------------------|
|---------------------|
|-5th--5th--6th--2th--|
|-5th--5th--6th--2th--|
|-3th--3th--4th--0th--|
  .    .    .    .


Riff 11 Cd time 4:48
Guitar 1
Four times
Play this slowly, too...

|-------------------------------------|
|-------------------------------------|
|-------------------------------------|
|-2--(2)--(2)--(2)--3--(3)--(3)--(3)--|
|-2--(2)--(2)--(2)--3--(3)--(3)--(3)--|
|-0--(0)--(0)--(0)--1--(1)--(1)--(1)--|

Guitar 2
Four times
NOT SURE, but there's something like this!

|-----------------------------------|
|-----------------------------------|
|---------------------7-------------|
|-9--9--9--9--10--10----10-9-10-9-7-|
|-7--7--7--7--8---8-----------------|
|-----------------------------------|

Guitar 2(?) Cd time 5:04
Twice

|------------------------------------------------------|
|------------------------------------------------------|
|------------------------------------------------------|
|--------------------------7--10--9----7----10----9----|
|-7----10-9-7--6--7----10------------------------------|
|------------------------------------------------------|


Riff 12 Cd time 5:19
Guitar 1
Twice
I'm not sure is there rhythm guitar,
but I tabbed this and it sounds pretty good...


|-----------------|
|-----------------|
|-----------------|
|-----------------|
|-8=----7---10----|
|-6=----5---8-----|

Guitar 2
Twice

|----------------------------------------------------|
|----------------------------------------------------|
|------7-------------------7--10--9----7---10---9----|
|-8------10-8--7--8----10----------------------------|
|----------------------------------------------------|
|----------------------------------------------------|


Riff 13 Cd time 5:35
Four times
3rd and 4th time use tremolo picking

|---------------------------------------------------|
|---------------------------------------------------|
|---------------------------------------------------|
|-9----8X--------12---11--9----8------5---4--5---4--|
|-7----6X--------10---9---7----6------3---2--3---2--|
|---------------------------------------------------|


Riff 5d Cd time 6:06
Guitar 1
Once

|-------------------------------------------------------|
|-------------------------------------------------------|
|-------------------------------------------------------|
|------9--7--5----7--9--7--5--------5--4-------4--2--0--|
|-7----------------------------3----------2-------------|
|-------------------------------------------------------|

Guitar 2
Once

|----------------------------------------------------------|
|----------------------------------------------------------|
|----------------------------------------------------------|
|----------------------------------------------2--4--2--0--|
|-7----------------------------3----------2----------------|
|----------------------------------------------------------|


Riff 2b Cd time 6:11
Once

|----------------------------------------|
|----------------------------------------|
|----------------------------------------|
|-9--7-9--7-9----9--7-9--7-9--9--7h9p7-5-|
|-7--5-7--5-7----7--5-7--5-7-------------|
|----------------------------------------|


Riff 3 Cd time 6:16
Three times

|----------------------------------------------------------
|----------------------------------------------------------
|----------------------------------------------------------
|----------5555-4444----------5555-4444----------5555-4444-
|-33333333-----------33333333-----------33333333-----------
|----------------------------------------------------------

-----------------------------------------------------------
-----------------------------------------------------------
-----------------------------------------------------------
---------5555-4444--------------------------5555-4444------
33333333-----------777777-55-777777-55-7777-----------5555-
-----------------------------------------------------------

----------------------------------------|
----------------------------------------|
----------------------------------------|
-------------------------5555-4444------|
777777-55-777777-55-7777-----------5555-|
----------------------------------------|


Guitar 2 plays this on 3rd time Cd time 6:37

|----------------------------------------------------------
|----------------------------------------------------------
|----------------------------------------------------------
|----------5555-4444----------5555-4444----------5555-4444-
|-33333333-----------33333333-----------33333333-----------
|----------------------------------------------------------

-----------------------------------------------------------
-----------------------------------------------------------
--------------4444-----------------------------------------
---------5555-------------------------------5555-4444------
33333333-----------777777-55-777777-55-7777-----------5555-
-----------------------------------------------------------

--------------------------------------------------------|
--------------------------------------------------------|
--------------------------------------------------------|
-----------------------------------------9999-7777------|
101010101010-99-101010101010-99-10101010-----------9999-|
--------------------------------------------------------|


Riff 4b Cd time 6:47
Guitar 1
Once

|-----------------------------------------------------------------
|--------------------------8888-7777------------------------------
|-999999-77-999999-77-9999-----------7777-121212121212-1111-121212
|-----------------------------------------------------------------
|-----------------------------------------------------------------
|-----------------------------------------------------------------

------------------------------------------------|
---------------------12121212-10101010----------|
121212-1111-12121212-------------------11111111-|
------------------------------------------------|
------------------------------------------------|
------------------------------------------------|

Guitar 2
Twice

|-----------------------------------------|
|-----------------------------------------|
|-----------------------------------------|
|--------------------------5555-4444------|
|-777777-55-777777-55-7777-----------5555-|
|-----------------------------------------|



Riff 6 Cd time 6:52
Not sure about this one... Listen to the strums
Four times

|----------------------------------------------|
|----------------------------------------------|
|----------------------------------------------|
|----------------------------------------------|
|-6-STRUM/7-6-STRUM-9-6-STRUM/7\5--5-5-\3--3-3-|
|-4------/5-4-------7-4------/5\3--3-3-\1--1-1-|


Guitar solo... Cd time 7:03
Starts on 2nd time
Coming up!!!!


Riff 7 Cd time 7:13
Guitar 1
Once

|------------------------------------------|
|------------------------------------------|
|------------------------------------------|
|-7th--8-7-8-7th--8-7-10-7th-8-7-8-6th-5th-|
|------------------------------------------|
|------------------------------------------|

Guitar 2
Twice

|-----------------------------------------------|
|-----------------------------------------------|
|-----------------------------------------------|
|-----------------------------------------------|
|-7-STRUM/8-7-STRUM-10-7-STRUM/8\6--6-6-\5--5-5-|
|-5------/6-5-------8--5------/6\4--4-4-\3--3-3-|


Ending Cd time 7:17
Guitar 1

|----------------------------------------------------|
|----------------------------------------------------|
|----------------------------------------------------|
|-7th--8-7-8-7th--8-7-10-7th-8-7-8---------6--5------|
|----------------------------------6--5--4-4--3--6-8-|
|----------------------------------4--3--2-------4-6-|

Guitar 2

|--------------------------------------------------|
|--------------------------------------------------|
|--------------------------------------------------|
|----------------------------------------6--5------|
|-7-STRUM/8-7-STRUM-10-7-STRUM/8\6--5--4-4--3--6-8-|


Important: The song above is NOT stored on the Chordie server. The original song is hosted at www.xguitar.com. Chordie works as a search engine and provides on-the-fly formatting. Chordie does not index songs against artists'/composers' will. To remove this song please click here.

This song is displayed as text-only. Transposing and tuning is only available for chordpro-songs.

Login - add to songbook

Rating click stars to rate

Layout
Accuracy

SHARE PAGE  




You need to log in to post comments