Guitar Tabs, Chords and Lyrics


Thirteen Autumns and a Widow    Cradle Of Filth



CRADLE OF FILTH
Thirteen Autumns And A Widow
Album: Cruelty And The Beast
1998 Music For Nations


Tabbed by "The Hellspawn" (effigy29@hotmail.com)

Legend:

h       hammer-on
p       pull-off
PM |--| palm mute
"       tremolo picking
/       slide up
\       slide down
3/4     time signature
( )     tie note

As always, I try to make my tabs as clear as possible but,
don't expect this tab is 100% perfect, maybe you'll find
something wrong, but I should be pretty close. To do my best,
I include the right timing, the right song structure and
the time signature


I indicate when each of them plays different part.


Tune one whole step  (6:D 5:G 4:C 3:F 2:A 1:D)

Intro Riff
3/4
|--------------|-------------|-------------|
|--------------|-------------|-------------|
|*-5-----------|-(5)---------|-(5)---------|
|*-5-----------|-(5)---------|-(5)---------|
|--3-----------|-(3)---------|-(3)---------|
|--------------|-------------|-------------|

  ______________________________________
|1.                                    |
|-------------|--------------------------|
|-------------|--------------------------|
|-5-----------|-------------------------*|
|-5-------3---|-4-----------------------*|
|-3-------3---|-4------------------------|
|---------1---|-2------------------------|

  ______________________________________
|2.3.                                  |
|-------------|--------------------------|
|-------------|--------------------------|
|-5-----------|-------------------------*|
|-5-------4---|-3-----------------------*|
|-3-------4---|-3------------------------|
|---------2---|-1------------------------|


|-----------------|-----------------|-----------------|
|-----------------|-----------------|-----------------|
|-5---------------|-(5)-------------|-----5-----------|
|-5---------------|-(5)-------------|-----5-----------|
|-3---------------|-(3)-------------|-----3-----------|
|-----------------|-----------------|-----------------|


Riff 1
|-------------|-------------|-------------|-------------|
|-------------|-------------|-------------|-------------|
|-------------|-------------|-------------|-------------|
|-4-----------|-3-----------|-4-----------|-3-----------|
|-4-----------|-3-----------|-4-----------|-3-----------|
|-2-----------|-1-----------|-2-----------|-1-----------|

                                            play 4 times
|-------------|-------------|-------------|-------------|
|-------------|-------------|-------------|-------------|
|-------------|-------------|-------------|-------------|
|-8---88888888|-888888888888|-888888888888|-888888888888|
|-8---88888888|-888888888888|-888888888888|-888888888888|
|-6---66666666|-666666666666|-666666666666|-666666666666|


Riff 2
|--------------|-------------|-------------|-------------|
|--------------|-------------|-------------|-------------|
|*-------------|-------------|-------------|-------------|
|*-444444444444|-444444444444|-444444444444|-444444444444|
|--444444444444|-444444444444|-444444444444|-444444444444|
|--222222222222|-222222222222|-222222222222|-222222222222|


|-------------|-------------|-------------|--------------|
|-------------|-------------|-------------|--------------|
|-555555555555|-555555555555|-555555555555|-555555555555*|
|-555555555555|-555555555555|-555555555555|-555555555555*|
|-333333333333|-333333333333|-333333333333|-333333333333-|
|-------------|-------------|-------------|--------------|


|--------------|-------------|-------------|--------------|
|--------------|-------------|-------------|--------------|
|*-------------|-------------|-------------|--------------|
|*-3-----------|-----rest----|-----rest----|-----rest-----|
|--3-----------|-------------|-------------|--------------|
|--1-----------|-------------|-------------|--------------|


|-------------|-------------|-------------|--------------|
|-------------|-------------|-------------|--------------|
|-555555555555|-555555555555|-555555555555|-555555555555*|
|-555555555555|-555555555555|-555555555555|-555555555555*|
|-333333333333|-333333333333|-333333333333|-333333333333-|
|-------------|-------------|-------------|--------------|


play Riff A 4 times


Riff C
|-------------|-------------|-------------|-------------|
|-------------|-------------|-------------|-------------|
|-------------|-------------|-------------|-5p0-7p0-7p0-| GTR 1
|-5p0-5p0-5p0-|-7p0-8p0-8p0-|-8p0-8p0-8p0-|-------------|
|-------------|-------------|-------------|-------------|
|-------------|-------------|-------------|-------------|
|                                                       |
|Riff C1                                                |
|-------------|-------------|-------------|-------------|
|-------------|-------------|-------------|-------------|
|-------------|-------------|-------------|-------------| GTR 2
|-5p0-5p0-5p0-|-7p0-8p0-8p0-|-5p0-5p0-5p0-|-7p0-8p0-8p0-|
|-------------|-------------|-------------|-------------|
|-------------|-------------|-------------|-------------|


                                            (end Riff C)
|-------------|-------------|-------------|-------------|
|-------------|-------------|-------------|-------------|
|-----77777777|-777755555555|-----77777777|-777755555555| GTR 1
|-5-----------|-------------|-5-----------|-------------|
|-------------|-------------|-------------|-------------|
|-------------|-------------|-------------|-------------|
|                                                       |
|                                         (end Riff C1) |
|-------------|-------------|-------------|-------------|
|-------------|-------------|-------------|-------------|
|-------------|-------------|-------------|-------------| GTR 2
|-----88888888|-888877777777|-----88888888|-888877777777|
|-5-----------|-------------|-5-----------|-------------|
|-------------|-------------|-------------|-------------|


Riff D
|--------------|-------------|-----------------|
|--------------|-------------|-----------------|
|*-7"----------|-----5"------|-----------------|
|*-------------|---------8"--|-7"--------------|
|--------------|-------------|-----------------|
|--------------|-------------|-----------------|


|-------------|-------------|-----------------|
|-GTR 1-------|-------------|-----------------|
|-5"----------|-------------|-----------------|
|-------------|-----5"--3"--|-2"--------------|
|-3"----------|-------------|-----------------|
|-GTR 2-------|-------------|-----------------|


|-------------|-------------|-------------|-------------|
|-------------|-------------|-------------|-------------|
|-------------|-------------|-------------|-------------|
|-777777777777|-7---8---7---|-777777777777|-777777777777|
|-777777777777|-7---8---7---|-777777777777|-777777777777|
|-555555555555|-5---6---5---|-555555555555|-555555555555|


                                             (end Riff D)
|-------------|-------------|-------------|--------------|
|-------------|-------------|-------------|--------------|
|-----7-------|-------------|-555555555555|-555555555555*| GTR 1
|-8---7---8---|-777777777777|-555555555555|-555555555555*|
|-8---5---8---|-777777777777|-333333333333|-333333333333-|
|-6-------6---|-555555555555|-------------|--------------|
|                                                        |
|                                                        |
|-------------|--------------|-------------|-------------|
|-------------|--------------|-------------|-semi-harm---|
|-----7-------|------------7-|-9-----------|-9~----------| GTR 2*
|-8-------8---|-7-------10---|-------------|-------------|
|-------------|--------------|-------------|-------------|
|-------------|--------------|-------------|-------------|
                                              *the first time play
                                               the same thing as GTR 1

12/8  (Slower)
|----------------|----------------|------------------|------------------|
|----------------|----------------|------------------|------------------|
|-7--------------|-(7)------------|------------------|------------------|
GTR 1
|-7--------------|-(7)------------|-7----------------|-(7)--------------|
|-5--------------|-(5)------------|-7----------------|-(7)--------------|
|----------------|----------------|-5----------------|-(5)--------------|
|                                                                       |
|                                                                       |
|----------------|----------------|------------------|------------------|
|----------------|----------------|------------------|------------------|
|-10------9------|-------10--9----|-10p9h10------9h10|-9-------10--9----|
GTR 2
|----------------|-7------------7-|------------------|----------------7-|
|----------------|----------------|------------------|------------------|
|----------------|----------------|------------------|------------------|


|----------------|----------------|------------------|-------------------|
|----------------|----------------|------------------|-------------------|
|-5--------------|-(5)------------|------------------|-------------------|
|-5--------------|-(5)------------|-5----------------|-3--------2--------|
|-3--------------|-(3)------------|-5----------------|-3--------2--------|
|----------------|----------------|-3----------------|-1--------0--------|
|                                                                        |
|                                                                        |
|----------------|----------------|------------------|-------------------|
|----------------|----------------|------------------|----------*--------|
|-9p7h9------7h9-|-7-----9--7-----|-10p9h10----------|-10~------9~-------|

|----------------|-------------7--|------------------|-------------------|
|----------------|----------------|------------------|-------------------|
|----------------|----------------|------------------|-------------------|
                                                                *semi
                                                                 harmonic

Riff E (fast) 3/4
|--------------|-------------|-------------|-------------|
|--------------|-------------|-------------|-------------|
|*-------------|-------------|-------------|-------------| GTR 1
|*-------------|-------------|-------------|-------------|
|--555555555555|-555555555555|-888888888888|-777777775555|
|--------------|-------------|-------------|-------------|
|                                                        |
|Riff E1                                                 |
|--------------|-------------|-------------|-------------|
|--------------|-------------|-------------|-------------|
|*-10"---------|-9"----------|-------------|-10"--9"-----| GTR 2
|*-------------|-------------|-7"----------|----------7"-|
|--------------|-------------|-------------|-------------|
|--------------|-------------|-------------|-------------|


|-------------|-------------|-------------|-------------|
|-------------|-------------|-------------|-------------|
|-------------|-------------|-------------|-------------|
|-------------|-------------|-------------|-------------|
|-------------|-------------|-777777777777|-888888888888|
|-555555555555|-555555555555|-------------|-------------|
|                                                       |
|                                                       |
|-------------|-------------|-------------|-------------|
|-------------|-------------|-------------|-------------|
|-10-9-10"----|-10"-----9-10|-9"----------|-10"--9"-----|
|-------------|-------------|-------------|----------7"-|
|-------------|-------------|-------------|-------------|
|-------------|-------------|-------------|-------------|


|-------------|-------------|-------------|-------------|
|-------------|-------------|-------------|-------------|
|-------------|-------------|-------------|-------------|
|-------------|-------------|-------------|-------------|
|-333333333333|-333333333333|/888888888888|-777777775555|
|-------------|-------------|-------------|-------------|
|                                                       |
|                                                       |
|-------------|-------------|-------------|-------------|
|-------------|-------------|-------------|-------------|
|-9-7-9"------|-9"------7-9-|-7"----------|-9"--7"------|
|-------------|-------------|-------------|---------7"--|
|-------------|-------------|-------------|-------------|
|-------------|-------------|-------------|-------------|


                                            (end Riff E)
|-------------|-------------|-------------|--------------|
|-------------|-------------|-------------|--------------|
|-------------|-------------|-------------|-------------*| *1st time,
|-------------|-------------|-*-----------|-*-----------*|  let ring
|-------------|-------------|-888888888888|-7777777777777|
|-333333333333|-333333333333|-------------|--------------|
|                                                        |
|                                                        |
|                                           (end Riff E1)|
|-------------|-------------|-------------|--------------|
|-------------|-------------|-------------|--------------|
|-10-9-10"----|-10"---------|-10"---------|-9"----------*|
|-------------|-------------|-------------|-------------*|
|-------------|-------------|-------------|--------------|
|-------------|-------------|-------------|--------------|

play Riff C and C1 4 times
play Riff D 2 times
play Riff E and E1 1.75 times
then:

|-------------|-------------|-------------|-------------|
|-------------|-------------|-------------|-------------|
|-------------|-------------|-------------|-------------|
|-------------|-------------|-------------|-------------|
|-------------|-------------|-8---8p7p5---|-8---7---5---|
|-333333333333|-333333333333|-------------|-------------|
|                                                       |
|                                                       |
|                                                       |
|-------------|-------------|-------------|-------------|
|-------------|-------------|-------------|-------------|
|-10-9-10"----|-10"---------|-10"---------|-------------|
|-------------|-------------|-------------|-------------|
|-------------|-------------|-------------|-8\\\slide\\\|
|-------------|-------------|-------------|-------------|


Riff F
12/8
|--------------------------|-------------------------|
|--------------------------|-------------------------|
|*-7-----7-7-7-7-----7-7-7-|-------------------------|
|*-7-----7-7-7-7-----7-7-7-|-7-----7-7-7-7-----7-7-7-|
|--5-----5-5-5-5-----5-5-5-|-7-----7-7-7-7-----7-7-7-|
|--------------------------|-5-----5-5-5-5-----5-5-5-|
         PM---|       PM---|        PM---|      PM---|


                                          play 4 times
                                          (end Riff F)
|-------------------------|--------------------------|
|-------------------------|--------------------------|
|-------------------------|-3-3-3-3-----5-5-5-5-----*|  *play 4th
|-5-----5-5-5-5-----5-5-5-|-3-3-3-3-----5-5-5-5-----*|   time only
|-5-----5-5-5-5-----5-5-5-|-1-1-1-1-----3-3-3-3---*--|
|-3-----3-3-3-3-----3-3-3-|-----------------------0--|
         PM---|      PM---|  PM---|      PM---|


Both GTRS
|---------------------------|-------------------------|-------------------------|
|---------------------------|-------------------------|-------------------------|
|*-------------------------*|-(GTR
1)-----------------|-------Drum-fill---------|
|*-------------------------*|-4p2-2-5p2-2-4p2-2-5p4p2-|-------------------------|
|---------------------------|-------------------------|-------------------------|
|--2p0-0-3p0-0-2p0-0-3p0-0--|-2p0-0-3p0-0-2p0-0-3p2p0-|-2-----------------------|
                            (GTR 2)

|--------------------------|-------------------------|
|--------------------------|-------------------------|
|*-------------------------|-------------------------|
|*-4p2-2-5p2-2-4p2-2-5p2-2-|-4p2-2-5p2-2-4p2-2-5p2-2-|
|--------------------------|-------------------------|
|--------------------------|-------------------------|


|-------------------------|--------------------------|
|-------------------------|--------------------------|
|-------------------------|-------------------------*|
|-4p0-0-5p0-0-4p0-0-5p0-0-|-7p5p4-5p4p2-4p2p0-4p2p0-*|
|-------------------------|--------------------------|
|-------------------------|--------------------------|


|------------------------------|-----------------------------|
|------------------------------|-----------------------------|
|*-----------------------------|-----------------------------|
|*-9p7--7-10p7-7-9p7--7-10p7-7-|-9p7-7-10p7-7-9p7-7-10p7-7---|
|------------------------------|-----------------------------|
|------------------------------|-----------------------------|
|                                                            |
|                                                            |
|------------------------------|-----------------------------|
|------------------------------|-----------------------------|
|*-11p9-9-12p9-9-11p9-9-12p9-9-|-11p9-9-12p9-9-11p9-9-12-9-9-|
|*-----------------------------|-----------------------------|
|------------------------------|-----------------------------|
|------------------------------|-----------------------------|


|-----------------------------|------------------------------------|
|-----------------------------|------------------------------------|
|-----------------------------|-----------------------------------*| GTR 1
|-9p7--7-10p7-7-9p7--7-10p7-7-|-10p9p7---9p8p6--------------------*|
|-----------------------------|------------------11p10p8--10p9p7---|
|-----------------------------|------------------------------------|
|                                                                  |
|                                                                  |
|-----------------------------|------------------------------------|
|-11p9-9-12p9-9-11p9-9-12p9-9-|-13p12p10-12p11p9-------------------|
|-----------------------------|------------------13p12p10-12p11p9-*| GTR 2
|-----------------------------|-----------------------------------*|
|-----------------------------|------------------------------------|
|-----------------------------|------------------------------------|


|-------------------------|-------------------------|-------------------------|
|-------------------------|-------------------------|-------------------------|
|-------------------------|-------------------------|-------Drum-fill---------|
|-------------------------|-------------------------|-------------------------|
|-------------------------|-------------------------|-------------------------|
|-2p0-0-3p0-0-2p0-0-3p0-0-|-2p0-0-3p0-0-2p0-0-3p2p0-|-2-----------------------|


play Riff F 4 times

back to 3/4

with Riff E  (GTR 1)
|-------------|-------------|-------------|--------------|
|-------------|-------------|-------------|--------------|
|-10----------|-9-----------|-------------|-10---9-------|
|-(GTR-2)-----|-------------|-7-----------|----------7---|
|-------------|-------------|-------------|--------------|
|-------------|-------------|-------------|--------------|


|-------------|-------------|-------------|--------------|
|-------------|-------------|-------------|--------------|
|-10ph910-----|(10)-----9h10|p9-----------|-10---9-------|
|-------------|-------------|-------------|----------7---|
|-------------|-------------|-------------|--------------|
|-------------|-------------|-------------|--------------|


|-------------|-------------|-------------|-------------|
|-------------|-------------|-------------|-------------|
|-9p7h9-------|(9)------7h9-|p7-----------|-9---7-------|
|-------------|-------------|-------------|---------7---|
|-------------|-------------|-------------|-------------|
|-------------|-------------|-------------|-------------|


|-------------|-------------|-------------|-------------|
|-------------|-------------|-------------|-------------|
|-10h9p10-----|(10)---------|-10----------|-9-----------|
|-------------|-------------|-------------|-------------|
|-------------|-------------|-------------|-------------|
|-------------|-------------|-------------|-------------|

play Riff E w/ E1

free time
|-----------------|
|-----------------|
|-----------------|
|-5---------------|
|-5---------------|
|-3---------------|


(Bass & Keyboard)


12/8 (very slow)
|-------------------------|-------------------------|
|-------------------------|-------------------------|
|-(both GTRS)-------------|-------------------------|
|-5-----------7-----------|-8-----------7-----------|
|-------------------------|-------------------------|
|-------------------------|-------------------------|


|-------------------------|-------------------------|
|-------------------------|-------------------------|
|-------------------------|-------------------------|
|-8-----------7-----------|-5-----------4-----------|
|-------------------------|-------------------------|
|-------------------------|-------------------------|


|-------------------------|-------------------------|
|-GTR 1-------------------|-------------------------|
|-3-----------5-----------|-7-----------5-----------|
|-5-----------7-----------|-8-----------7-----------|
|-GTR 2-------------------|-------------------------|
|-------------------------|-------------------------|


|-------------------------|-------------------------|
|-------------------------|-------------------------|
|-7-----------5-----------|-3-----------2-----------|
|-8-----------7-----------|-5-----------4-----------|
|-------------------------|-------------------------|
|-------------------------|-------------------------|


|-GTR 2-------------------|-------------------------|
|-8-----------10----------|-11----------10----------|
|-3-----------5-----------|-7-----------5-----------|
|-GTR 1-------------------|-------------------------|
|-------------------------|-------------------------|
|-------------------------|-------------------------|


|-------------------------|-------------------------|
|-11----------10----------|-8-----------7-----------|
|-7-----------5-----------|-3-----------2-----------|
|-------------------------|-------------------------|
|-------------------------|-------------------------|
|-------------------------|-------------------------|


                                          play 4 times
|--------------------------|--------------------------|
|--------------------------|--------------------------|
|*-------------------------|-8-----------7-----------*|
|*-------------------------|-8-----------7-----------*|
|--------------------------|-6-----------5------------|
|--3-----------5-----6-----|--------------------------|
                             slow down on 4th time

end with:
|-----------------|
|-----------------|
|-----------------|
|-5---------------|
|-5---------------|


Important: The song above is NOT stored on the Chordie server. The original song is hosted at www.xguitar.com. Chordie works as a search engine and provides on-the-fly formatting. Chordie does not index songs against artists'/composers' will. To remove this song please click here.

This song is displayed as text-only. Transposing and tuning is only available for chordpro-songs.

Login - add to songbook

Rating click stars to rate

Layout
Accuracy

SHARE PAGE  




You need to log in to post comments