Guitar Tabs, Chords and Lyrics


I Fantasia Down: An Enemy Led the Tempest    Cradle Of Filth



Band:  Cradle Of Filth
Album: ***ation and A Day
Song: An Enemy Led The Tempest

Transcribed By: Jesse Rubio
Email:  Jrubio87@hotmail.com


.  - palm mute           /  - slide up to
\\  - slide down to       ~  - vibrato
h  - hammer on           b  - Bend
p  - pull off            Suffixes for bend
t  - tap                 f  - full bend    h - half bend
ph - pinched harmonic    q  - quarter bend t - tap bend
*  - see comment         ^  - Hold bend    r release bend
x  - Staccatto           ~  - vibrato bend
,  - slight palm mute    () - ghost note, sustained note
!  - Strike note extremely hard
r_ - let note ring

Tuning: (low to high) 6-C 5-F 4-A# 3-D# 2-G 1-C

Riff 1 (4 times) *(T= 10th fret)
 ----------------------------------------------------------------------
 ----------------------------------------------------------------------
 ----------------------------------------------------------------------
 ----------------*-*---------------------*-*-------------------*-*-----
 7-7-7-7-7-7-8-8-T-T-7-7-7-7-7-7-7-7-8-8-T-T-7-7-7-7-7-7-7-8-8-T-T-7-7-
 0-0-0-0-0-0-0-0-0-0-0-0-0-0-0-0-0-0-0-0-0-0-0-0-0-0-0-0-0-0-0-0-0-0-0-

end with this 1st &3rd time, then with this 2nd and 4th.
      -------------|         -------------|
      -------------|         -------------|
      -------------|         -------------|
      -------------|         -*----*--*--*|
      -------------|         -T----T--T--T|
      -5/6--6-5/6\\5|         -8----8--8--8|
      -3/4--4-3/4\\3|         -------------|


   Riff 2 (2 times, note seperate endings...again)  *(T= 10th fret)
 ------------------------------------------------------------------------
 ------------------------------------------------------------------------
 ------------------------------------------------------------------------
 ------------------------------------------------------------------------
 ------------------------------------------------------------------------
 5-5-5-5-5-5-6-6-8-8-5-5-5-5-5-5-5-5-6-6-8-8-5-5-5-5-5-5-5-5-6-6-8-8-5-5-

1st ending     2nd ending
 ------------| -------------|
 ------------| -------------|
 ------------| *----*--*--*-|
 ------------| T----T--T--T-|
 5/6--6-5/6\\5| 8----8--8--8-|
 3/4--4-3/4\\3| -------------|

   Riff 3 (variation of Riff 1,and yes, two different endings)
 (2 times) *(T= 10th fret)
 ----------------------------------------------------------------------
 ----------------------------------------------------------------------
 ----------------------------------------------------------------------
 ----------------------------------------------------------------------
 ----------------------------------------------------------------------
 0-0-0-0-0-0-1-1-3-3-0-0-0-0-0-0-0-1-1-3-3-0-0-0-0-0-0-0-0-1-1-3-3-0-0-

 1st ending        2nd ending
 -------------|    -------------|
 -------------|    -------------|
 -------------|    *----*--*--*-|
 -------------|    T----T--T--T-|
 5/6--6-5/6\\5-|    8----8--8--8-|
 3/4--4-3/4\\5-|    -------------|


 Riff 4   (1 time)[*)= hold chord out until 3rd beat of measure,
                  then staccato or silence note]
 --------------------------------------------------------------------------
 --------------------------------------------------------------------------
 --------------------------------------------------------------------------
 2----------------2----------------2------------------------------4--4--4--
 2----------------2----------------2----------------5----5--5--5--2--2--2--
 0----------------0----------------0----------------3----3--3--3-----------
(*)__________x   (*)__________x   (*)__________x         .  .  .  x  x  x


 --------------------------------------------------------------------------|
 --------------------------------------------------------------------------|
 --------------------------------------------------------------------------|
 2----------------2----------------2---------------------------------------|
 2----------------2----------------2----------------5----5--5--5--3--3--3--|
 0----------------0----------------0----------------3----3--3--3--1--1--1--|
(*)__________x   (*)__________x   (*)__________x         .  .  .  .  .  .


   Riff 5 (2 times) (note two endings) *(T=10th fret)
 ------------------------------------------------------------------------
 ------------------------------------------------------------------------
 ------------------------------------*-----------------------------------
 2-----------9-----------2-----------T-----------2-----------8-----------
 2-----2-2-2-7-----2-2-2-2-----2-2-2-8-----2-2-2-2-----2-2-2-6-----2-2-2-
 0-----0-0-0-------0-0-0-0-----0-0-0-------0-0-0-0-----0-0-0-------0-0-0-
       . . .       . . .       . . .       . . .       . . .       . . .
ending, 1st time  ending, 2nd time
 ----------------| ---------------|
 ----------------| ---------------|
 ----------------| ---------------|
 5---------4-4-4-| ---------------|
 5---5-5-5-2-2-2-| 5--5-5-5-3-3-3-|
 3---3-3-3-------| 3--3-3-3-1-1-1-|
     . . . x x x      . . . . . .

Riff 6 (play this 3 times...        then end with this)
 --------------------------------| ---------------------------|
 --------------------------------| ---------------------------|
 --------------------------------| ---------------------------|
 --------------------------------| ---------------------------|
 7-----7-----7---7-----7-----8---| 7-----7-----7---5--7--5--4-|
 --8-8---8-8---8---8-8---8-8---8-| --8-8---8-8---8-3--5--3--2-|
   . .   . .   .   . .   . .   .     . .   . .   .

  Riff 7 (2 times) *(T=10th fret V=12th fret)
 ------------------------------------------------
 ------------------------------------------------
 ------------------------------------------------
 ------------*-*-*-------*-*-*-7-7-7-*-*-*-------
 7-7-7-9-9-9-T-T-T-9-9-9-T-T-T-------T-T-T-9-9-9-
 ------------------------------------------------

 ------------------------------------------------
 ------------------------------------------------
 ------------------------------------------------
 ------------*-*-*-7-7-7-8-8-8-------------*-*-*-
 7-7-7-9-9-9-T-T-T-------------7-7-7-9-9-9-T-T-T-
 ------------------------------------------------

 ------------------------------------------------
 *-*-*-*-*-*-*-*-*-*-*-*-*-*-*-*-*-*-*-*-*-*-*-*-
 V-V-V-V-V-V-V-V-V-V-V-V-V-V-V-V-V-V-V-V-V-V-V-V-
 T-T-T-T-T-T-T-T-T-T-T-T-T-T-T-T-T-T-T-T-T-T-T-T-
 ------------------------------------------------
 ------------------------------------------------

 ------------------------------------------------|
 ------------------------------------------------|
 8-8-8-8-8-8-8-8-8-8-8-8-8-8-8-8-8-8-8-8-8-8-8-8-|
 8-8-8-8-8-8-8-8-8-8-8-8-8-8-8-8-8-8-8-8-8-8-8-8-|
 6-6-6-6-6-6-6-6-6-6-6-6-6-6-6-6-6-6-6-6-6-6-6-6-|
 ------------------------------------------------|


 Riff 8  (1 time)
 ------------------------------------------------
 ------------------------------------------------
 ------------------------------------------------
 ------------------------------------------------
 2-2-2-3-5-5-2-2-2-3-5-5-2-2-2-3-5-5-3-3-3-6-6-6-
 ------------------------------------------------


 ------------------------------------------------
 ------------------------------------------------
 ------------------------------------------------
 ------------------------------------------------
 2-2-2-3-5-5-2-2-2-3-5-5-2-2-2-3-5-5-3-3-6-6-3-3-
 ------------------------------------------------

 ------------------------------------------------
 ------------------------------------------------
 ------------------------------------------------
 ------------------------------------------------
 2-2-2-3-5-5-2-2-2-3-5-5-2-2-2-3-5-5-3-3-3-6-6-6-
 ------------------------------------------------

 ------------------------------------------------|
 ------------------------------------------------|
 ------------------------------------------------|
 ------------------------------------------------|
 2-2-2-3-5-5-2-2-2-3-5-5-3-3-3-6-6-6-0-0-0-3-3-3-|
 ------------------------------------------------|

Riff 9 (2 times) *(T=10th fret E=11th fret
                 V=12th fret F=14th fret S=16th fret)
 -----------------------------------------------------
 -----------------------------------------------------
 ---------*-----*--*--*--------------*-----*--*--*--*-
 9--9-9-9-V--9--S--F--V--8--9--9-9-9-V--9--S--F--V--E-
 7--7-7-7-T--7--F--V--T--6--7--7-7-7-T--7--F--V--T--9-
 -----------------------------------------------------
 .  . . .    .              .  . . .    .
 -----------------------------------------------------|
 -----------------------------------------------------|
 ---------*-----*--*--*--------------*----------------|
 9--9-9-9-V--9--S--F--V--8--9--9-9-9-V--9-------------|
 7--7-7-7-T--7--F--V--T--6--7--7-7-7-T--7--5--7--5--2-|
 ------------------------------------------3--5--3--2-|
 .  . . .    .              .  . . .    .

Play Riff 7 (3 times)
Play Riff 8 (2 times)
Play Riff 9 (2 times)

Riff 10 (3 times)
 ----------------------------------------------------------------
 ----------------------------------------------------------------
 ----------------------------------------------------------------
 ----------------------------------------------------------------
 ----------------------------------------------------------------
 0-0-0-0-0-0-0-0-7-7-7-7-7-7-7-7-8-8-8-8-8-8-8-8-1-1-1-1-1-1-1-1-
 . . . . . . . . . . . . . . . . . . . . . . . . . . . . . . . .
 ----------------------------------------------------------------|
 ----------------------------------------------------------------|
 ----------------------------------------------------------------|
 ----------------------------------------------------------------|
 ----------------------------------------------------------------|
 0-0-0-0-0-0-0-0-7-7-7-7-7-7-7-7-8-8-8-8-8-8-8-8-1111----1111----|
 . . . . . . . . . . . . . . . . . . . . . . . . !!!x    !!!x


 Riff 11 (2 times)
 ------------------------------------------------
 ------------------------------------------------
 ------------------------------------------------
 ------------------------------------------------
 2--2--2--2--2--2--2--2--2--2--2--2--2--2--2--222
 0--0--0--0--0--0--0--0--0--0--0--0--0--0--0--000
    .  .  .  .  .  .  .  .  .  .  .  .  .  .
 -------------------------------------------------|
 -------------------------------------------------|
 -------------------------------------------------|
 -------------------------------------------------|
 6--6--6--6--6--6--6-----5--5--5--5--5--5--5--333-|
 4--4--4--4--4--4--4--0003--3--3--3--3--3--3--111-|
    .  .  .  .  .  .        .  .  .  .  .  .


 Riff 13 (2 times)    *(T= yep, 10th fret)
 ----------------------------------------------------------------
 ----------------------------------------------------------------
 ------------*-*-----------------------------*-*-----------------
 ----*-*-9-9-T-T-9-9-*-*-----*-*-----*-*-9-9-T-T-9-9-*-*-----*-*-
 7-7-T-T-------------T-T-9-9-T-T-7-7-T-T-------------T-T-9-9-T-T-
 ----------------------------------------------------------------
 . . . . . . . . . . . . . . . . . . . . . . . . . . . . . . . .

 ----------------------------------------------------------------|
 ----------------------------------------------------------------|
 ----------------------------------------------------------------|
 ----------------------------------------------------------------|
 --------6-6-7-7-6-6---------------------6-6-7-7-6-6-------------|
 4-4-7-7-------------7-7-6-6-7-7-4-4-7-7-------------7-7-6-6-7-7-|




 Riff 14 (1 time)
 ----------------------------------------------------------------
 ----------------------------------------------------------------
 ----------------------------------------------------------------
 4---------------3-------4---6---7-----------------------6-------
 2---------------1-------2---4---5-----------------------4-------
 ----------------------------------------------------------------
 r______________ r______ r__ r__ r______________________ r______
 ----------------------------------------------------------------|
 ----------------------------------------------------------------|
 ----------------------------------------------------------------|
 4---------------6-------7---6-----------------------------------|
 2---------------4-------5---4---4-------------------------------|
 --------------------------------2-------------------------------|
 r______________ r______ r__ r__ r______________________________


 Riff 15 (2 times)
 -----------------------------------------------------------------
 -----------------------------------------------------------------
 -----------------------------------------------------------------
 --------444455554444--------------------444455554444-------------
 22225555------------55554444555522225555------------555544445555-
 -----------------------------------------------------------------

 -----------------------------------------------------------------|
 -----------------------------------------------------------------|
 -----------------------------------------------------------------|
 -----------------------------------------------------------------|
 --------555566665555--------------------555566665555-------------|
 33336666------------66665555666633336666------------666655556666-|

 Play Riff 4 (1 time)
 Play Riff 5 (2 times, with both endings just like the first time)
 Play Riff 6 (3 times, then end IT the same as the first time played)
 Play Riff 7 (2 times)
 Play Riff 8 (2 times)

 and then this... and fin!
 --------------------------------------------------|
 --------------------------------------------------|
 --------------------------------------------------|
 ------------------------------------------------4-|
 3-3-3-6-6-6-0-0-0-3-3-3-3-3-3-6-6-6-0-0-0-3-3-3-2-|


Important: The song above is NOT stored on the Chordie server. The original song is hosted at www.xguitar.com. Chordie works as a search engine and provides on-the-fly formatting. Chordie does not index songs against artists'/composers' will. To remove this song please click here.

This song is displayed as text-only. Transposing and tuning is only available for chordpro-songs.

Login - add to songbook

Rating click stars to rate

Layout
Accuracy

SHARE PAGE  




You need to log in to post comments