Guitar Tabs, Chords and Lyrics


III Sewer Side Up: Doberman Pharaoh    Cradle Of Filth



Doberman Pharaoh - Cradle of Filth
(1st on the net)_____________________

h=hammer on
p=pull off
.=palm mute



Tuning-----Drop Db   (Db-Ab-Db-Gb-Bb-Ab-)

Intro

Guitar 1
----------------------------
----------------------------
----------------------------  Whammy Bar (x2)
----------------------------
----------------------------
6-6-5-89--8-9-8-5-----------

Guitar 2
----------------------------
----------------------------
----------------------------  Whammy Bar (x2)
----------------------------
6-6-5-89-8-9-8-5------------
----------------------------

Both guitars
Riff A
-----------------------------------------------------------
-----------------------------------------------------------
-----------------------------------------------------------
-----------------------------------------------------------
6--6--5-6-5-9--8-9-8-5555555555-------6--6--5-6-5-9--8-9-8-111111
6--6--5-6-5-9--8-9-8-5555555555-------6--6--5-6-5-9--8-9-8-111111
                     ..........                            ......
Riff B
----------------------------
----------------------------
----------------------------   (x2)
----------------------------
1--1--0-1-0-4--3-4-3-0000000
1--1--0-1-0-4--3-4-3-0000000

Riff A

Riff C
-----------------------------------
-----------------------------------
-----------------------------------
8h9-8h98p7-7-8h9-8h98p7-7----------     (4 Times)
----------9------------9-----------
-----------------------------------

Riff D
------------------------------------
------------------------------------
------------------------------------
6h7-6h7-6p4-4-6h7-6h7-6p4-4---------     (4 Times)
-----------7-------------7----------
------------------------------------

Riff C (4 Times)

Riff E
----------------------------------------
----------------------------------------
----------------------------------------
------------7---------------------------
6-----68--8-5----6---68--7--------------
6-----68--8------6---68--7--------------
      .   .          .

Riff F
---------------------------------------------
---------------------------------------------
---------------------------------------------
6--6-5-6-5-6545-8---5----6--6-5-6-5-6543-8--7
6---------------8---5----6---------------8--7
6---------------8---5----6---------------8--7

Riff G (clean)
----9--------9-------9------------9------------
--9---9---10---9---7--7-10p9p7--7---7----------
6-----------------------------7----------------  (4 Times)
--------7--------9-----------------------------
-----------------------------------------------
-----------------------------------------------

Intro
Riff C 4 times
RIff D 4 Times

Riff H
---------------------------------------
---------------------------------------
---------------------------------------      2x
---------------------------------------
--1-1h2p1----1---1---1-1h2p1----2---212
11-------5-44--33--11-------5-44--33---
..         ..  ..  ..         ..  ..

Riff H**
--------------------------------------------
--------------------------------------------
--------------------------------------------
--------------------------------------------  2x
--6--6-7-642---7---4----6--6-7-642---7---0-2
66-----------77--66---66-----------77--22---
..           ..  ..   ..           ..  ..

Riff F (Twice)
Riff G (4 Times)

Riff H
---------------------
-------------7-------
-------9-----4-------     (x2)  Riff G plays 4 Times Starting at Riff H
11-----7-----4-----12
11-----7-----------12
11-----------------12

Riff H** (x2)
Riff H   (x2)

Riff F 4 Times

Riff A (x2)

Outro
--------------------------------------
--------------------------------------
--------------------------------------       (2x)
1---0---5---4---1---0---5---4---------
1---0---5---4---1---0---5---4---------
1---0---5---4---1---0---5---4---------


There you go it took me 1 1/2 to tab this by ear. I would very muchm appreciate
you taking the time to thank me for the tab at galacanakis1@yahoo.com



Important: The song above is NOT stored on the Chordie server. The original song is hosted at www.xguitar.com. Chordie works as a search engine and provides on-the-fly formatting. Chordie does not index songs against artists'/composers' will. To remove this song please click here.

This song is displayed as text-only. Transposing and tuning is only available for chordpro-songs.

Login - add to songbook

Rating click stars to rate

Layout
Accuracy

SHARE PAGE  




You need to log in to post comments