Guitar Tabs, Chords and Lyrics


IV the Scented Garden: Mannequin    Cradle Of Filth



Artist: cradle of filth
song: manequin
album: ***ation and a day
tuning: all strings down 1 whole step and 6ths down 2 steps, to C
tabed by: twiggy1441@hotmail.com


pm = palm mut
#cutline# = play twice

this tab is 100% perfect, and if u dont agree, please do better than me ^^
and look at it CAREFULLY


intro:  0:013

hard palm mute on the 6th string, and lightly dampen the lead stuff.
4|--10-------11-------10----10-------11-------10----    {all the 10's on the
5|--------------------------------------------------    6th string can be played
6|-----10-10----10-10----10----10-10----10-10----10-    by gtr. 2, but since
                                                         they booted gian im
4|--11-------10-------11----13-------11-------10------|  pretty sure paul plays
5|----------------------------------------------------| it all, like its shown.}
6|-----10-10----10-10----10----10-10----10-10----10---|

after verse: 0:36

4|--6---5--3-3----|------|--8------------------------
5|--4---3--1-1----|--2x--|--6--1-3-4-----------------
6|----------------|------|------------3---2pm--7//---

4|---------------------------|
5|--1-3-4---3-5-6--3-6-3-6---|
6|----------3-5-6--3-6-3-6---|
pm                 . . . .

0:58 pm all
4|--10----------10----------10/11--10----------10----------11/12--
5|--10----------10----------10/11--10----------10----------11/12--
6|--10-10-10-10-10-10-10-10-10/11--10-10-10-10-10-10-10-10-11/12--
Tp     ........    ........

4|--10----------10----------10/11--12-11-12-14-15-14-12-13--|
5|--10----------10----------10/11--12-11-12-14-15-14-12-13--|
6|--10-10-10-10-10-10-10-10-10/11--12-11-12-14-15-14-12-13--|

on the 2nd time end with
4|--10----------10----------10/11--14-13-14-16-17-16-14-15--|
5|--10----------10----------10/11--14-13-14-16-17-16-14-15--|
6|--10-10-10-10-10-10-10-10-10/11--14-13-14-16-17-16-14-15--|

2:29
4|--6---5-----7---6-----8---7----9---11-13-11-10---|
5|--4---3-----5---4-----6---5----7---9--11--9--8---|

2:40  pm all
4|-------------------------------------------|

5|-----------------------------------------11-9-8-11-9-8-11-9--|


there you go, ive done Babylon AD, Serpent Tongue, Hurt and virtue and
Manequin for the New album "***ation and a Day"


Important: The song above is NOT stored on the Chordie server. The original song is hosted at www.xguitar.com. Chordie works as a search engine and provides on-the-fly formatting. Chordie does not index songs against artists'/composers' will. To remove this song please click here.

This song is displayed as text-only. Transposing and tuning is only available for chordpro-songs.

Login - add to songbook

Rating click stars to rate

Layout
Accuracy

SHARE PAGE  




You need to log in to post comments