Guitar Tabs, Chords and Lyrics


II Paradise Lost: Serpent Tongue    Cradle Of Filth



Artist: Cradle of Filth		
Song: Serpent tongue (track 7 on c.d)
Album: ***ation and a Day
Tuning:All strings down a whole step and 6th sting down 2 whole steps to C
Tabed by: twiggy1441@hotmail.com

tp- tremlolo pick
~ - Let ring with Vibrato
pm- palm mute
p - pull off
mt- so fast that it just sounds mushed together

this is my FAVORITE cradle of fitlh song and thats saying something ^^

Intro 1     Loads of Delay/reverb
1|-----------------------------------------------------------------------------|
2|--12------------12-----------12--------12-----------13-------15----12--------|
3|-----11-9-12-------11-9-14------14-9------11-9-12------11-9-----------14-9---|

intro 2... similar to intro 1 but diffrent at the end
1|-----------------------------------------------------------------------------|
2|--12------------12-----------12--------12-----------13-------15----15-13-12--|
3|-----11-9-12-------11-9-14------14-9------11-9-12------11-9------------------|

Fill   0:28
6|--000--00--|

verse  0:29
4|--7-9---7-5----7--------7-9---7---9-7---9-10---|----------------|
5|--5-7------------5-7----5-7--------------------|--repeat twice--|


0:48  look closley at the notes on the 5th and 6th strings so u dont get messed up
4|--5-7-5-8---7-5-7---------------------
5|--3-5-3-6---5-3-5--3332--3--556655----
6|-------------------3332--3--556655----

4|-5-8-5-6---5-8-----------------------|----------------|
5|-3-6-3-4---5-8---332222-3333-556688--|-reapeat twice--|
6|-----------------332222-3333-556688--|----------------|


1:07   the last part there is F.A.S.T  hard to hear..and it hurts the hand...
5|--3--431-3----431--666--431-5--431-6--765--|
6|--3--431-3----431--666--431-5--431-6--765--|
tp  .......................................
mt     ...      ...       .................
pm  .......................................
yes yes i will be updating i just go the CD an hour ago.. email me at


Important: The song above is NOT stored on the Chordie server. The original song is hosted at www.xguitar.com. Chordie works as a search engine and provides on-the-fly formatting. Chordie does not index songs against artists'/composers' will. To remove this song please click here.

This song is displayed as text-only. Transposing and tuning is only available for chordpro-songs.

Login - add to songbook

Rating click stars to rate

Layout
Accuracy

SHARE PAGE  




You need to log in to post comments