Guitar Tabs, Chords and Lyrics


IV the Scented Garden: Thank God for the Suffering   Cradle Of Filth

      5 7 [A5]7 x x x         8 10 [C5]10 x x x         0 2 [E5]2 x x x          7 9 [B5]9 x x x

D5 F5 G5 A5(type 2)
x 5 7 x x x 1 3 x x x x 3 5 x x x x 5 7 x x x x

Gtr I (C F A# D# G C) - 'Dist. Guitar I'
Gtr II (C F A# D# G C) - 'Dist.Guitar II'
Gtr III (C F A# D# G C) - 'Strings '
Gtr IV (C F A# D# G C) - 'Piano'

Intro
Q=82
[4/4] Gtr I
W E E E E E E E E E E E E E E E E
|----------|------------------------|------------------------------|
|----------|------------------------|------------------------------|
|----------|------------------------|------------------------------|
|----------|--------9-10-----9-10---|-------9-10------------9-10---|
|----------|------7--------7--------|-----7------------7-----------|
|----------|--5----------5----------|--5------------5--------------|

|
| Gtr III
| <
| W H.. S S Q. S S E. E. S S
|-5--------|--5-----------------5-7-|--8-------7-8-10----8-----7-8-|
|----------|------------------------|------------------------------|
|----------|------------------------|------------------------------|
|-7--------|-(7)--------------------|-(7)--------------------------|
|----------|------------------------|------------------------------|
|----------|------------------------|------------------------------|

+W +W


  [E]    [E]  [E]  [E]  [E]   [E]  [E]   [E]     [E]   [E]  [E]   [E]   [E]   [E]   [E]  [E]                                                    
|----------------------|-----------------------|
|----------------------|-----------------------|
|----------------------|------------7-11-------|
|-------9-7------9--7--|------9----------10-9--|
|----10-------10-------|----9---10-------------|
|-8---------8----------|-7---------------------|

|
| Q. H E Q. Q. Q
|-5-------3------------|------------------1----|
|-------------------5--|-5-------3-------------|
|----------------------|-----------------------|
|-7-------5--------(5)-|-2----------------3----|
|----------------------|-----------------------|
|----------------------|-----------------------|

Q. H +E H. Q


  [E]   [E]  [E]   [E]    [E]   [E]  [E]   [E]       [E]   [E]  [E]   [E]     [E]   [E]     [E]   [E]                                           
|-------------------------|------------------------------|
|-------------------------|------------------------------|
|-------------------------|------------------------------|
|------9-10--------9-10---|-------9-10------------9-10---|
|----7-----------7--------|-----7------------7-----------|
|-5-----------5-----------|--5------------5--------------|

|
| Q. S S Q. S S Q. S S E. E. S S
|-------------5-------5-7-|--8-------7-8-10----8-----7-8-|
|-5-------5-8-------------|------------------------------|
|-------------2-----------|------------------------------|
|-2-----------------------|-10---------------------------|
|-------------------------|------------------------------|
|-------------------------|------------------------------|

H H W


  [E]     [E]  [E]  [E]  [E]   [E]  [E]  [E]       [E]  [E]     [E]   [E]      [E]      [E]     [E]     [E]                                     
|-----------------------|--------------------------------------||
|-----------------------|--------------------------------------||
|-----------------------|------------------7----11-------------||
|--------9-7------9-7---|---------9------------------10----9---||
|-----10-------10-------|----9------10-------------------------||
|-8----------8----------|--7-----------------------------------||

|
| H.. S S E S S E S S S S S S S S S S
|-3-----------------5-7-|--8-7-8-10--8-10-12-10--8-7--8-10-8-7-||
|-----------------------|--------------------------------------||
|-----------------------|--------------------------------------||
|-5---------------------|-10-----------------------------------||
|-----------------------|--------------------------------------||
|-----------------------|--------------------------------------||

W W


Verse
    [A5]Gtr II
W +W
| |
Gtr I
    [E]  [E]  [E]   [E]  [E]  [E]  [E]   [E]     [E]  [E]  [E]   [E]  [E]  [E]  [E]   [E]                                                      
||--------------------|--------------------|
||o-------------------|--------------------|
||--------------------|--------------------|
||------9-10-----9-10-|------9-10-----9-10-|
||o---7--------7------|----7--------7------|
||--5--------5--------|--5--------5--------|



  [C5]W                   [B5]W
| |
  [E]   [E]  [E]  [E]  [E]   [E]  [E]  [E]    [E]  [E]  [E]   [E]  [E]   [E]   [E]  [E]                                                        
|-------------------|----------------------||
|-------------------|---------------------o||
|-------------------|----------7-11--------||
|------9-7------9-7-|-----9---------10-9---||
|---10-------10-----|---9---10------------o||
|-8--------8--------|-7--------------------||



Chorus
  [A5C5]Gtrs [B5]I, II        [A5C5]     [B5G#5]             [A5C5]     [B5]             [A5C5]     [B5G#5]
  [E]   [E]  [E]  [E]  H]         [E]   [E]  [E]  [E]  H]         [E]   [E]  [E]  [E]  H]         [E]   [E]  [E]  [E]  H]                            
|-----------------|-----------------|-----------------|-----------------|
|-----------------|-----------------|-----------------|-----------------|
|-----------------|-----------------|-----------------|-----------------|
|-----------------|-----------------|-----------------|-----------------|
|-7-10-9-9-(9)----|-7-10-9-6-(6)----|-7-10-9-9-(9)----|-7-10-9-6-(6)----|
|-5--8-7-7-(7)----|-5--8-7-4-(4)----|-5--8-7-7-(7)----|-5--8-7-4-(4)----|



N.C.
TPTPTPTP TP TPTPTPTP TP TPTPTPTP TP TPTPTPTP TP
  [E]  [E]  [E]  [E]  H]         [E]  [E]  [E]  [E]  H]         [E]  [E]  [E]  [E]  H]         [E]  [E]  [E]  [E]  H]                                
|----------------|----------------|----------------|----------------||
|----------------|----------------|----------------|----------------||
|----------------|----------------|----------------|----------------||
|----------------|----------------|----------------|----------------||
|----------------|----------------|----------------|----------------||
|-5-8-7-7-(7)----|-5-8-7-4-(4)----|-5-8-7-7-(7)----|-5-8-7-4-(4)----||



Verse
  [A5]Gtr I
  [E]    [E]  [E]   [E]  [E]  [E]  [E]   [E]       [E]   [E]  [E]   [E]     [E]   [E]     [E]   [E]                                            
|-----------------------|------------------------------|
|-----------------------|------------------------------|
|-----------------------|------------------------------|
|-------9-10-----9-10---|-------9-10------------9-10---|
|-----7--------7--------|-----7------------7-----------|
|-5----------5----------|--5------------5--------------|

|
| Gtr III
| H.. S S Q. S S E. E. S S
|-5-----------------5-7-|--8-------7-8-10----8-----7-8-|
|-----------------------|------------------------------|
|-----------------------|------------------------------|
|-7---------------------|-(7)--------------------------|
|-----------------------|------------------------------|
|-----------------------|------------------------------|

W +W


  [E]    [E]  [E]  [E]  [E]   [E]  [E]   [E]     [E]   [E]  [E]   [E]   [E]   [E]   [E]  [E]                                                   
|----------------------|----------------------|
|----------------------|----------------------|
|----------------------|------------7-11------|
|-------9-7------9--7--|------9----------10-9-|
|----10-------10-------|----9---10------------|
|-8---------8----------|-7--------------------|

|
| Q. H E Q. Q. Q
|-5-------3------------|------------------1---|
|-------------------5--|-5-------3------------|
|----------------------|----------------------|
|-7-------5--------(5)-|-2----------------3---|
|----------------------|----------------------|
|----------------------|----------------------|

Q. H +E H. Q


  [A5]Gtr II
W +W
| |
  [E]   [E]  [E]   [E]    [E]   [E]  [E]   [E]       [E]   [E]  [E]   [E]     [E]   [E]     [E]   [E]                                          
|-------------------------|------------------------------|
|-------------------------|------------------------------|
|-------------------------|------------------------------|
|------9-10--------9-10---|-------9-10------------9-10---|
|----7-----------7--------|-----7------------7-----------|
|-5-----------5-----------|--5------------5--------------|

|
| Q. S S Q. S S Q. S S E. E. S S
|-------------5-------5-7-|--8-------7-8-10----8-----7-8-|
|-5-------5-8-------------|------------------------------|
|-------------2-----------|------------------------------|
|-2-----------------------|-10---------------------------|
|-------------------------|------------------------------|
|-------------------------|------------------------------|

H H W


  [C5]W                       [B5] W
| |
  [E]     [E]  [E]  [E]  [E]   [E]  [E]  [E]       [E]  [E]     [E]   [E]      [E]      [E]     [E]     [E]                                    
|-----------------------|--------------------------------------||
|-----------------------|--------------------------------------||
|-----------------------|------------------7----11-------------||
|--------9-7------9-7---|---------9------------------10----9---||
|-----10-------10-------|----9------10-------------------------||
|-8----------8----------|--7-----------------------------------||

|
| H.. S S E S S E S S S S S S S S S S
|-3-----------------5-7-|--8-7-8-10--8-10-12-10--8-7--8-10-8-7-||
|-----------------------|--------------------------------------||
|-----------------------|--------------------------------------||
|-5---------------------|-10-----------------------------------||
|-----------------------|--------------------------------------||
|-----------------------|--------------------------------------||

W W


Chorus
  [A5C5]Gtrs [B5]I, II        [A5C5]     [B5G#5]             [A5C5]     [B5]             [A5C5]     [B5G#5]
  [E]   [E]  [E]  [E]  H]         [E]   [E]  [E]  [E]  H]         [E]   [E]  [E]  [E]  H]         [E]   [E]  [E]  [E]  H]                            
|-----------------|-----------------|-----------------|-----------------|
|-----------------|-----------------|-----------------|-----------------|
|-----------------|-----------------|-----------------|-----------------|
|-----------------|-----------------|-----------------|-----------------|
|-7-10-9-9-(9)----|-7-10-9-6-(6)----|-7-10-9-9-(9)----|-7-10-9-6-(6)----|
|-5--8-7-7-(7)----|-5--8-7-4-(4)----|-5--8-7-7-(7)----|-5--8-7-4-(4)----|



N.C.
TPTPTPTP TP TPTPTPTP TP TPTPTPTP TP TPTPTPTP TP
  [E]  [E]  [E]  [E]  H]         [E]  [E]  [E]  [E]  H]         [E]  [E]  [E]  [E]  H]         [E]  [E]  [E]  [E]  H]                                
|----------------|----------------|----------------|----------------||
|----------------|----------------|----------------|----------------||
|----------------|----------------|----------------|----------------||
|----------------|----------------|----------------|----------------||
|----------------|----------------|----------------|----------------||
|-5-8-7-7-(7)----|-5-8-7-4-(4)----|-5-8-7-7-(7)----|-5-8-7-4-(4)----||



Interlude
TP TP TP TP TP
W +W W H H
|----------|------------|----------|-----------|
|----------|------------|----------|-----------|
|----------|------------|----------|-----------|
|----------|------------|----------|-----------|
|-5--------|-(5)--------|----------|-3----4----|
|----------|------------|-6--------|-----------|



TP TP TPTPTP TP TP TPTPTP TP TP TP
W Q E E Q. E Q E E Q. E H H
|----------|---------------|---------------|-----------|
|----------|---------------|---------------|-----------|
|----------|---------------|---------------|-----------|
|----------|----7---8----7-|----7---8----7-|-----------|
|-5--------|-4----4--------|-3----3--------|-----------|
|----------|---------------|---------------|-3----5----|



TP TPTPTP TPTP TP TPTPTPTPTPTPTPTP
H H H Q Q Q. S S Q. S S Q. S S E S S E S S
|-----------|------------|-------------------|-----------------------|
|-----------|------------|-------------------|-----------------------|
|-----------|------------|-------------------|-----------------------|
|-7---------|------------|-------------------|-----------------------|
|-5----3----|-5----7--7--|-5----5-4-8----7-5-|-7----5-4---5-4---5-4--|
|------1----|-3----5--5--|-------------------|----------5-----5------|



TP TP TP TPTP TP TPTPTPTPTPTPTPTP
Q. S S Q. S S Q. S S E S S E S S
|-------------------|----------------------|
|-------------------|----------------------|
|-------------------|----------------------|
|-------------------|----------------------|
|-5----5-4-8----7-5-|-7----5-4---5-4---5-4-|
|-------------------|----------5-----5-----|



TP TPTPTP TPTP TP TPTPTPTPTPTPTPTP
Q. S S Q. S S Q. S S E S S E S S
|-------------------|------------------------|
|-------------------|------------------------|
|-------------------|------------------------|
|-------------------|------------------------|
|-5----5-4-8----7-5-|-7----5-4---5-4---5-4---|
|-------------------|----------5-----5-------|



  [E5]TP   [F5] TP[E5F5]TP TP [D5F5]TP TP  [E5]TP   [E5F5]       [G5]   [F5]     [D5C5]
Q. S S Q E E H S S S S S S S S
|--------------------|--------------------------|
|--------------------|--------------------------|
|--------------------|--------------------------|
|-9----10-9-10--7-10-|-9----9-10---12-10---7-10-|
|-7-----8-7--8--5--8-|-7----7--8---10--8---5--8-|
|--------------------|--------------------------|

Q. S S Q E E H S S S S S S S S


  [E5]TP   [F5] TP[E5F5]TP TP [D5F5]TP TP  [E5]TP   [A5] TP [F5] TP
Q. S S Q E E H Q Q
|--------------------|--------------|
|--------------------|--------------|
|--------------------|--------------|
|-9----10-9-10--7-10-|-9----14--10--|
|-7-----8-7--8--5--8-|-7----12---8--|
|--------------------|--------------|

Q. S S Q E E H Q Q


  [E5]TP   [F5] TP[E5F5]TP TP [D5F5]TP TP  [E5]TP   [E5F5]       [G5]   [F5]     [D5F5]
Q. S S Q E E H S S S S S S S S
|--------------------|--------------------------|
|--------------------|--------------------------|
|--------------------|--------------------------|
|-9----10-9-10--7-10-|-9----9-10---12-10---7-10-|
|-7-----8-7--8--5--8-|-7----7--8---10--8---5--8-|
|--------------------|--------------------------|

Q. S S Q E E H S S S S S S S S


  [E5]TP   [F5] TP[E5F5]TP TP [D5F5]TP TP  [E5]TP   [A5]   [F5]
Q. S S Q E E H H
|--------------------|------------||
|--------------------|------------||
|--------------------|------------||
|-9----10-9-10--7-10-|-9----------||
|-7-----8-7--8--5--8-|-7----7--3--||
|--------------------|------5--1--||

Q. S S Q E E H Q Q


Chorus
  [E]   [E]  [E]  [E]  H]         [E]   [E]  [E]  [E]  H]         [E]   [E]  [E]  [E]  H]         [E]   [E]  [E]  [E]  H]                            
|-----------------|-----------------|-----------------|-----------------|
|-----------------|-----------------|-----------------|-----------------|
|-----------------|-----------------|-----------------|-----------------|
|-----------------|-----------------|-----------------|-----------------|
|-7-10-9-9-(9)----|-7-10-9-6-(6)----|-7-10-9-9-(9)----|-7-10-9-6-(6)----|
|-5--8-7-7-(7)----|-5--8-7-4-(4)----|-5--8-7-7-(7)----|-5--8-7-4-(4)----|



N.C.
TPTPTPTP TP TPTPTPTP TP TPTPTPTP TP TPTPTPTP TP
  [E]  [E]  [E]  [E]  H]         [E]  [E]  [E]  [E]  H]         [E]  [E]  [E]  [E]  H]         [E]  [E]  [E]  [E]  H]                                
|----------------|----------------|----------------|----------------|
|----------------|----------------|----------------|----------------|
|----------------|----------------|----------------|----------------|
|----------------|----------------|----------------|----------------|
|----------------|----------------|----------------|----------------|
|-5-8-7-7-(7)----|-5-8-7-4-(4)----|-5-8-7-7-(7)----|-5-8-7-4-(4)----|



Breakdown
  [A5]Gtr IV                  [C5]            [B5]
W +W W W
|----------|------------|-----------|----------|
|----------|------------|-----------|----------|
|----------|------------|-----------|----------|
|-7--------|-(7)--------|-10--------|-9--------|
|-7--------|-(7)--------|-10--------|-9--------|
|-5--------|-(5)--------|--8--------|-7--------|



  [A5]W          +W           [C5] W          [B5]W
|----------|------------|-----------|------||
|----------|------------|-----------|------||
|----------|------------|-----------|------||
|-7--------|-(7)--------|-10--------|-9----||
|-7--------|-(7)--------|-10--------|-9----||
|-5--------|-(5)--------|--8--------|-7----||



  [A5]Gtr I
  [E]    [E]  [E]   [E]  [E]  [E]  [E]   [E]       [E]   [E]  [E]   [E]     [E]   [E]     [E]   [E]                                            
|-----------------------|------------------------------|
|-----------------------|------------------------------|
|-----------------------|------------------------------|
|-------9-10-----9-10---|-------9-10------------9-10---|
|-----7--------7--------|-----7------------7-----------|
|-5----------5----------|--5------------5--------------|

|
| Gtr III
| H.. S S Q. S S E. E. S S
|-5-----------------5-7-|-10-------7-8-10----8-----7-8-|
|-----------------------|------------------------------|
|-----------------------|------------------------------|
|-7---------------------|-(7)--------------------------|
|-----------------------|------------------------------|
|-----------------------|------------------------------|

W +W


  [E]     [E]  [E]  [E]  [E]   [E]  [E]   [E]     [E]   [E]  [E]   [E]   [E]   [E]   [E]  [E]                                                  
|-----------------------|----------------------|
|-----------------------|----------------------|
|-----------------------|------------7-11------|
|--------9-7------9--7--|------9----------10-9-|
|-----10-------10-------|----9---10------------|
|-8----------8----------|-7--------------------|

|
| H.. E Q. Q. Q
|-3---------------------|------------------1---|
|--------------------5--|-5-------3------------|
|-----------------------|----------------------|
|-5-----------------(5)-|-2----------------3---|
|-----------------------|----------------------|
|-----------------------|----------------------|

H.. +E H. Q


  [E]   [E]  [E]   [E]    [E]   [E]  [E]   [E]       [E]   [E]  [E]   [E]     [E]   [E]     [E]   [E]                                          
|-------------------------|------------------------------|
|-------------------------|------------------------------|
|-------------------------|------------------------------|
|------9-10--------9-10---|-------9-10------------9-10---|
|----7-----------7--------|-----7------------7-----------|
|-5-----------5-----------|--5------------5--------------|

|
| Q. S S Q. S S Q. S S E. E. S S
|-------------5-------5-7-|-10-------7-8-10----8-----7-8-|
|-5-------5-8-------------|------------------------------|
|-------------2-----------|------------------------------|
|-2-----------------------|-10---------------------------|
|-------------------------|------------------------------|
|-------------------------|------------------------------|

H H W


  [E]     [E]  [E]  [E]  [E]   [E]  [E]  [E]       [E]  [E]     [E]   [E]      [E]      [E]     [E]     [E]                                    
|-----------------------|--------------------------------------||
|-----------------------|--------------------------------------||
|-----------------------|------------------7----11-------------||
|--------9-7------9-7---|---------9------------------10----9---||
|-----10-------10-------|----9------10-------------------------||
|-8----------8----------|--7-----------------------------------||

|
| H.. S S E S S E S S S S S S S S S S
|-3-----------------5-7-|--8-7-8-10--8-10-12-10--8-7--8-10-8-7-||
|-----------------------|--------------------------------------||
|-----------------------|--------------------------------------||
|-5---------------------|-10-----------------------------------||
|-----------------------|--------------------------------------||
|-----------------------|--------------------------------------||

W W


Verse
    [A5]Gtr II
W +W
| |
Gtr I
    [E]  [E]  [E]   [E]  [E]  [E]  [E]   [E]     [E]  [E]  [E]   [E]  [E]  [E]  [E]   [E]                                                      
||--------------------|--------------------|
||o-------------------|--------------------|
||--------------------|--------------------|
||------9-10-----9-10-|------9-10-----9-10-|
||o---7--------7------|----7--------7------|
||--5--------5--------|--5--------5--------|



  [C5]W                   [B5]W
| |
  [E]   [E]  [E]  [E]  [E]   [E]  [E]  [E]    [E]  [E]  [E]   [E]  [E]   [E]   [E]  [E]                                                        
|-------------------|----------------------||
|-------------------|---------------------o||
|-------------------|----------7-11--------||
|------9-7------9-7-|-----9---------10-9---||
|---10-------10-----|---9---10------------o||
|-8--------8--------|-7--------------------||



Chorus
  [A5C5]Gtrs [B5]I, II        [A5C5]     [B5G#5]             [A5C5]     [B5]             [A5C5]     [B5G#5]
  [E]   [E]  [E]  [E]  H]         [E]   [E]  [E]  [E]  H]         [E]   [E]  [E]  [E]  H]         [E]   [E]  [E]  [E]  H]                            
|-----------------|-----------------|-----------------|-----------------|
|-----------------|-----------------|-----------------|-----------------|
|-----------------|-----------------|-----------------|-----------------|
|-----------------|-----------------|-----------------|-----------------|
|-7-10-9-9-(9)----|-7-10-9-6-(6)----|-7-10-9-9-(9)----|-7-10-9-6-(6)----|
|-5--8-7-7-(7)----|-5--8-7-4-(4)----|-5--8-7-7-(7)----|-5--8-7-4-(4)----|



N.C.
TPTPTPTP TP TPTPTPTP TP TPTPTPTP TP TPTPTPTP TP
  [E]  [E]  [E]  [E]  H]         [E]  [E]  [E]  [E]  H]         [E]  [E]  [E]  [E]  H]         [E]  [E]  [E]  [E]  H]                                
|----------------|----------------|----------------|----------------||
|----------------|----------------|----------------|----------------||
|----------------|----------------|----------------|----------------||
|----------------|----------------|----------------|----------------||
|----------------|----------------|----------------|----------------||
|-5-8-7-7-(7)----|-5-8-7-4-(4)----|-5-8-7-7-(7)----|-5-8-7-4-(4)----||



Outro
TP TP TP TP TP
W +W W H H
||-----------|------------|----------|-----------|
||o----------|------------|----------|-----------|
||-----------|------------|----------|-----------|
||-----------|------------|----------|-----------|
||o-5--------|-(5)--------|----------|-3----4----|
||-----------|------------|-6--------|-----------|



TP TP TPTPTP TP TP TPTPTP TP TP TP
W Q E E Q. E Q E E Q. E H H
|----------|---------------|---------------|------------||
|----------|---------------|---------------|-----------o||
|----------|---------------|---------------|------------||
|----------|----7---8----7-|----7---8----7-|------------||
|-5--------|-4----4--------|-3----3--------|-----------o||
|----------|---------------|---------------|-3----5-----||



Duration Legend
---------------
W - whole; H - half; Q - quarter; E - 8th; S - 16th; T - 32nd; X - 64th; a - acciaccatura

+ - note tied to previous; . - note dotted; .. - note double dotted
Uncapitalized letters represent notes that are staccato (1/2 duration)
Irregular groupings are notated above the duration line
Duration letters will always appear directly above the note/fret number it represents the
duration for. Duration letters with no fret number below them represent rests. Multi-
bar rests are notated in the form Wxn, where n is the number of bars to rest for. Low
melody durations appear below the staff

Tablature Legend
----------------

h - hammer-on
p - pull-off
b - bend
pb - pre-bend
r - bend release (if no number after the r, then release immediately)
/\ - slide into or out of (from/to "nowhere")
s - legato slide
S - shift slide
- natural harmonic
(n) - artificial harmonic
n(n) - tapped harmonic
~ - vibrato
tr - trill
T - tap
TP - trem. picking
PM - palm muting
\n/ - tremolo bar dip; n = amount to dip
\n - tremolo bar down
n/ - tremolo bar up
/n\ - tremolo bar inverted dip
= - hold bend; also acts as connecting device for hammers/pulls
<> - volume swell (louder/softer)
x - on rhythm slash represents muted slash
o - on rhythm slash represents single note slash

Misc Legend
-----------

| - bar
|| - double bar
||o - repeat start
o|| - repeat end
*| - double bar (ending)
: - bar (freetime)
$ - Segno
& - Coda
Tempo markers - = BPM(8/16=s8/s16), where s8 = swing 8ths, s16 = swing 16ths


***************************************************************************************
* Generated using Power Tab Editor by Brad Larsen - http://powertab.guitarnetwork.org *
***************************************************************************************

Important: The song above is NOT stored on the Chordie server. The original song is hosted at www.xguitar.com. Chordie works as a search engine and provides on-the-fly formatting. Chordie does not index songs against artists'/composers' will. To remove this song please click here.

Text color:
Chord color:
Chord grids: 
Font size:    
Page size: 

A5 B5 C5 E E5 F5 G5
variations - click chord images

Login - add to songbook

Transpose chords

Tuning

Rating click stars to rate

Layout
Accuracy

SHARE PAGE  




You need to log in to post comments