Guitar Tabs, Chords and Lyrics


Funeral in Carpathia    Cradle Of Filth



Cradle Of Filth - Funeral In Carpathia
Submitted By: gaza the gr8
EMail: gazagroove@hotmail.com


Riff 1: 2 times
  (guitar one)
|-----------------------------------------------------------------|
|-----------------------------------------------------------------|
|-----------------------------------------------------------------|
|---2-4-2-5-4-2-4---2-4-2-5-4-2-4---2-4-2-5-4-2-4---2-4-2-5-4-2-4-|
|-0---------------------------------------------------------------|
|-----------------3---------------1---------------3---------------|

  (guitar two)
|-----------------------------------------------------------------|
|-----------------------------------------------------------------|
|-----------------------------------------------------------------|
|-9---------------7---------------5---------------7---------------|
|-9---------------7---------------5---------------7---------------|
|-7---------------5---------------3---------------5---------------|



  Riff 2: 2 times
  (both guitars)
|------------------------------------------------------------------------|
|------------------------------------------------------------------------|
|-------------------------------5---------------5------------------------|
|---8-7-5-----8-7-5h7-5------8-----8p7-5-----8----8-7-8-7-5-7-5---5------|
|-5--------------------------------------------------------------8---8-7-|
|----------8--------------6----------------8-----------------------------|


 riff 3:2 times

Riff 1: 2 times
  (guitar one)
|-----------------------------------------------------------------|
|-----------------------------------------------------------------|
|-----------------------------------------------------------------|
|---2-4-2-5-4-2-4---2-4-2-5-4-2-4---2-4-2-5-4-2-4---2-4-2-5-4-2-4-|
|-0---------------------------------------------------------------|
|-----------------3---------------1---------------3---------------|


 riff 4: play this whole thing 2 times
  (guitar one)
|---------------------------|----|-------------------------|----|
|---------------------------|----|---------------4---------|----|
|-----------------3---------|-2x-|---6--5-----------6-5p3--|-2x-|
|---6-5--------------6-5p3--|----|-3-------6--5h6----------|----|
|-3------6---5h6------------|----|-------------------------|----|
|---------------------------|----|-------------------------|----|




Riff 5
  twice
-------------------------------------------------------
-------------------------------------------------------
-------------------------------------------------------
-------------7-7-7-7-7-7-------------------------------
-8-8-8-8-8-8-------------10-10-10-10-10-10-8-8-8-8-8-8-
-------------------------------------------------------

-------------------------------------------------------
-------------------------------------------------------
-------------------------------------------------------
-------------------------------------------------------
-7-7-7-7-7-7-10-10-10-10-10-10-8-8-8-8-8-8-7-7-7-7-7-7-
-------------------------------------------------------

-------------------------------------------------------
-------------------------------------------------------
-------------------------------------------------------
-------------7-7-7-7-7-7-------------------------------
-8-8-8-8-8-8-------------10-10-10-10-10-10-8-8-8-8-8-8-
-------------------------------------------------------

-------------------------------------------------------
-------------------------------------------------------
-------------------------------------------------------
-------------------------------------------------------
-7-7-7-7-7-7-10-10-10-10-10-10-8-8-8-8-8-8-7-7-7-7-7-7-
-------------------------------------------------------

-------------------------------------------------------------
-------------------------------------------------------------
-------------------------------------------------------------
-------------------------------------------------------------
-------------------8-8-8-8-8-8-7-7-7-7-7-7-------------------
-10-10-10-10-10-10-------------------------10-10-10-10-10-10-

-------------------------------------------------------
-------------------------------------------------------
-------------------------------------------------------
-------------------------------------------------------
-------------7-7-7-7-7-7-------------------------------
-9-9-9-9-9-9-------------10-10-10-10-10-10-9-9-9-9-9-9-

-------------------------------------------------------------
-------------------------------------------------------------
-------------------------------------------------------------
-------------------------------------------------------------
-------------------8-8-8-8-8-8-7-7-7-7-7-7-------------------
-10-10-10-10-10-10-------------------------10-10-10-10-10-10-

-------------------------------------------------------
-------------------------------------------------------
-------------------------------------------------------
-------------------------------------------------------
-------------7-7-7-7-7-7-------------------------------
-9-9-9-9-9-9-------------10-10-10-10-10-10-9-9-9-9-9-9-




Riff 6:2 times
  (guitar one)
|-------------------|-----------------|-----------------|
|-------------------|-----------------|-----------------|

|-------------------|-----------------|-----------------|
|-5-8--7-5-7-5-7-8--|-8--7-5-7-5-7-8--|-8--7-5-7-5-7-8--|
|-------------------|-----------------|-----------------|
|-------------------|-----------------|-----------------|

  End #1:                     End #2:
|---------------------|     |------------------|
|---------------------|     |------------------|
|-5---------7--5------|     |-5----------------|
|---8--7-8-------8--7-|     |---8--7-8--7-5----|
|---------------------|     |---------------8--|
|---------------------|     |------------------|

twice
--------------------------------------------------------
--------------------------------------------------------
--------------------------------------------------------
-10-9-7-9-10-9-10---10-9-7-9-10-9-10---10-9-7-9-10-9-10-
--------------------------------------------------------
--------------------------------------------------------

-------------------
-------------------
-7--------9-7------
---10-9-7-----10-9-
-------------------
-------------------



Riff 7 - Solo 1

x 2

-----------------------------------------------------------------
-14t10p7-14t10p7-14t10p7-14t10p7---------------------------------
---------------------------------14t11p7-14t11p7-14t11p7-14t11p7-
-----------------------------------------------------------------
-----------------------------------------------------------------
-----------------------------------------------------------------

-----------------------------------------------------------------
-14t10p7-14t10p7-14t10p7-14t10p7---------------------------------
---------------------------------14t11p7-14t11p7-14t11p7-14t11p7-
-----------------------------------------------------------------
-----------------------------------------------------------------
-----------------------------------------------------------------

-------------------------------------------------------------
-14t10p7-14t10p7-14t10p7-14t10p7-12t9p5-12t9p5-12t9p5-12t9p5-
-------------------------------------------------------------
-------------------------------------------------------------
-------------------------------------------------------------
-------------------------------------------------------------

-9---10p9-7---9-10-
-------------------
-------------------
-------------------
-------------------
-------------------



Riff 8
  twice
-------------------------------------------------------
-------------------------------------------------------
-------------------------------------------------------
-------------7-7-7-7-7-7-------------------------------
-8-8-8-8-8-8-------------10-10-10-10-10-10-8-8-8-8-8-8-
-------------------------------------------------------

-------------------------------------------------------
-------------------------------------------------------
-------------------------------------------------------
-------------------------------------------------------
-7-7-7-7-7-7-10-10-10-10-10-10-8-8-8-8-8-8-7-7-7-7-7-7-
-------------------------------------------------------

-------------------------------------------------------
-------------------------------------------------------
-------------------------------------------------------
-------------7-7-7-7-7-7-------------------------------
-8-8-8-8-8-8-------------10-10-10-10-10-10-8-8-8-8-8-8-
-------------------------------------------------------

-------------------------------------------------------
-------------------------------------------------------
-------------------------------------------------------
-------------------------------------------------------
-7-7-7-7-7-7-10-10-10-10-10-10-8-8-8-8-8-8-7-7-7-7-7-7-
-------------------------------------------------------

-------------------------------------------------------------
-------------------------------------------------------------
-------------------------------------------------------------
-------------------------------------------------------------
-------------------8-8-8-8-8-8-7-7-7-7-7-7-------------------
-10-10-10-10-10-10-------------------------10-10-10-10-10-10-

-------------------------------------------------------
-------------------------------------------------------
-------------------------------------------------------
-------------------------------------------------------
-------------7-7-7-7-7-7-------------------------------
-9-9-9-9-9-9-------------10-10-10-10-10-10-9-9-9-9-9-9-

-------------------------------------------------------------
-------------------------------------------------------------
-------------------------------------------------------------
-------------------------------------------------------------
-------------------8-8-8-8-8-8-7-7-7-7-7-7-------------------
-10-10-10-10-10-10-------------------------10-10-10-10-10-10-

-------------------------------------------------------
-------------------------------------------------------
-------------------------------------------------------
-------------------------------------------------------
-------------7-7-7-7-7-7-------------------------------
-9-9-9-9-9-9-------------10-10-10-10-10-10-9-9-9-9-9-9-


keyboard does this then the guitar comes in


Riff 9-play 8 times
|-------------------------|
|-------------------------|
|-------------------------|
|-------5-----------7-----|
|-5-7-8---8-7-5-7-8---8-7-|
|-------------------------|



 Riff 10:                             end with this
|---------|---------------------|----|-----------------------|
|---------|---------------------|----|-----------------------|
|---------|---------------------|----|-----------------------|
|-------5-|----------------5-55-|-3x-|-7-77-5-55---5---------|
|-8-7-8---|-8-88-7-77-8-88------|----|-----------8---8-7-8-7-|
|---------|---------------------|----|-----------------------|


  Riff 11:               end with this
|-------------|-------|---------------------|
|-------------|-------|---------------------|
|-------------|-------|---------------------|
|---7--5-5--7-|---3x--|---8-7-5-7-5---5-----|
|-5-----------|-------|-8-----------8---8-7-|
|-------------|-------|---------------------|

riff 12:4 times
|-------------------------|
|-------------------------|
|-------------------------|
|-------5-----------7-----|
|-5-7-8---8-7-5-7-8---8-7-|
|-------------------------|


Riff 13 - Solo 2

-9---7h9p7------7-10-9---7h9p7------7-10-9---7---12---11---10-
-----------10------------------10-----------------------------
--------------------------------------------------------------
--------------------------------------------------------------
--------------------------------------------------------------
--------------------------------------------------------------

-----------------------------------------------------------------
-14t10p7-14t10p7-14t10p7-14t10p7---------------------------------
---------------------------------14t11p7-14t11p7-14t11p7-14t11p7-
-----------------------------------------------------------------
-----------------------------------------------------------------
-----------------------------------------------------------------

-----------------------------------------------------------------
-14t10p7-14t10p7-14t10p7-14t10p7---------------------------------
---------------------------------14t11p7-14t11p7-14t11p7-14t11p7-
-----------------------------------------------------------------
-----------------------------------------------------------------
-----------------------------------------------------------------

-------------------------------------------------------------
-14t10p7-14t10p7-14t10p7-14t10p7-12t9p5-12t9p5-12t9p5-12t9p5-
-------------------------------------------------------------
-------------------------------------------------------------
-------------------------------------------------------------
-------------------------------------------------------------

-9---10p9-7---9-10-
-------------------
-------------------
-------------------
-------------------
-------------------

theres some thing here that last about
5 seconds but i dont know what it is.....


riff 15
  twice
-------------------------------------------------------
-------------------------------------------------------
-------------------------------------------------------
-------------7-7-7-7-7-7-------------------------------
-8-8-8-8-8-8-------------10-10-10-10-10-10-8-8-8-8-8-8-
-------------------------------------------------------

-------------------------------------------------------
-------------------------------------------------------
-------------------------------------------------------
-------------------------------------------------------
-7-7-7-7-7-7-10-10-10-10-10-10-8-8-8-8-8-8-7-7-7-7-7-7-
-------------------------------------------------------

-------------------------------------------------------
-------------------------------------------------------
-------------------------------------------------------
-------------7-7-7-7-7-7-------------------------------
-8-8-8-8-8-8-------------10-10-10-10-10-10-8-8-8-8-8-8-
-------------------------------------------------------

-------------------------------------------------------
-------------------------------------------------------
-------------------------------------------------------
-------------------------------------------------------
-7-7-7-7-7-7-10-10-10-10-10-10-8-8-8-8-8-8-7-7-7-7-7-7-
-------------------------------------------------------

-------------------------------------------------------------
-------------------------------------------------------------
-------------------------------------------------------------
-------------------------------------------------------------
-------------------8-8-8-8-8-8-7-7-7-7-7-7-------------------
-10-10-10-10-10-10-------------------------10-10-10-10-10-10-

-------------------------------------------------------
-------------------------------------------------------
-------------------------------------------------------
-------------------------------------------------------
-------------7-7-7-7-7-7-------------------------------
-9-9-9-9-9-9-------------10-10-10-10-10-10-9-9-9-9-9-9-

-------------------------------------------------------------
-------------------------------------------------------------
-------------------------------------------------------------
-------------------------------------------------------------
-------------------8-8-8-8-8-8-7-7-7-7-7-7-------------------
-10-10-10-10-10-10-------------------------10-10-10-10-10-10-

-------------------------------------------------------
-------------------------------------------------------
-------------------------------------------------------
-------------------------------------------------------
-------------7-7-7-7-7-7-------------------------------
-9-9-9-9-9-9-------------10-10-10-10-10-10-9-9-9-9-9-9-



outro: twice


 Riff 2:
  (both guitars)
|------------------------------------------------------------------------|
|------------------------------------------------------------------------|
|-------------------------------5---------------5------------------------|
|---8-7-5-----8-7-5h7-5------8-----8p7-5-----8----8-7-8-7-5-7-5---5------|
|-5--------------------------------------------------------------8---8-7-|


Important: The song above is NOT stored on the Chordie server. The original song is hosted at www.xguitar.com. Chordie works as a search engine and provides on-the-fly formatting. Chordie does not index songs against artists'/composers' will. To remove this song please click here.

This song is displayed as text-only. Transposing and tuning is only available for chordpro-songs.

Login - add to songbook

Rating click stars to rate

Layout
Accuracy

SHARE PAGE  




You need to log in to post comments