Guitar Tabs, Chords and Lyrics


English Fire    Cradle Of Filth



Band:  Cradle Of Filth
Album: Nymphetamine
Song:  English Fire

Copyright (c)  RoadRunnerRecords 2004
Version 1.0 - (DATE)

Transcribed By: Ryan Eiker
Email:   Ryanmmfreek@yahoo.com


.  - palm mute           /  - slide up to
\\  - slide down to       ~  - vibrato
h  - hammer on           b  - Bend
p  - pull off            Suffixes for bend
t  - tap                 f  - full bend    h - half bend
ph - pinched harmonic    q  - quarter bend t - tap bend
*  - see comment         ^  - Hold bend    r release bend
x  - Stuccatto           ~  - vibrato bend
,  - slight palm mute    () - ghost note, sustained note
"  - tremolo note         - Trill

Tunning C G C F A D

|-------------------------------------------------------------------|
|-------------------------------------------------------------------|
|-------------------------------------------------------------------|
|-5-4-2-0-2----5--7--4--5----5-4-2-0-2-----------------------|
|-5-4-2-0-2----3--5--2--3----5-4-2-0-2--fade out----------|
|-5-4-2-0-2------------------5-4-2-0-2-----------------------|

|-------------------------------------------------------------------|
|-------------------------------------------------------------------|
|-------------------------------------------------------------------|
|-5-4-2-0-2---10-9-x-7-8--6-5-x-2-3------------------------|
|-5-4-2-0-2---10-9-x-7-8--6-5-x-2-3------------------------|
|-5-4-2-0-2---10-9-x-7-8--6-5-x-2-3------------------------|

|-------------------------------------------------------------------|
|-------------------------------------------------------------------|
|-------------------------------------------------------------------|
|-3-3-x-x-x-x-3-6-3-6-6---3-3-x-x-x-x-3-6-3--------------|
|-3-3-x-x-x-x-3-6-3-6-6---3-3-x-x-x-x-3-6-3--------------|
|-3-3-x-x-x-x-3-6-3-6-6---3-3-x-x-x-x-3-6-3--7/---------|

|-------------------------------------------------------------------|
|-------------------------------------------------------------------|
|----------------------------------------9-7-----------------------|
|-9-9-10-9-9-10-9---9-9-10--9-10----------------------------|
|-------------------------------------------------------------------|
|-------------------------------------------------------------------|

|-------------------------------------------------------------------|
|-------------------------------------------------------------------|
|-------------------------------------------------------------------|
|-9-10-9--7-9-7--9-10-9--5-7-5-------------------------------|
|-------------------------------------------------------------------|
|-------------------------------------------------------------------|

|-------------------------------------------------------------------|
|-------------------------------------------------------------------|
|-------------------------------------------------------------------|
|-5-4-2-0-2---10-9-x-7-8--6-5-x-2-3------------------------|
|-5-4-2-0-2---10-9-x-7-8--6-5-x-2-3------------------------|
|-5-4-2-0-2---10-9-x-7-8--6-5-x-2-3------------------------|

|-------------------------------------------------------------------|
|-------------------------------------------------------------------|
|-------------------------------------------------------------------|
|-3-3-x-x-x-x-3-6-3-6-6---3-3-x-x-x-x-3-6-3--------------|
|-3-3-x-x-x-x-3-6-3-6-6---3-3-x-x-x-x-3-6-3--------------|
|-3-3-x-x-x-x-3-6-3-6-6---3-3-x-x-x-x-3-6-3--7/---------|

|-------------------------------------------------------------------|
|-------------------------------------------------------------------|
|-------------------------------------------------------------------|
|-5-4-2-0-2-------------------------------------------------------|
|-5-4-2-0-2--fade out------------------------------------------|


Important: The song above is NOT stored on the Chordie server. The original song is hosted at www.xguitar.com. Chordie works as a search engine and provides on-the-fly formatting. Chordie does not index songs against artists'/composers' will. To remove this song please click here.

This song is displayed as text-only. Transposing and tuning is only available for chordpro-songs.

Login - add to songbook

Rating click stars to rate

Layout
Accuracy

SHARE PAGE  




You need to log in to post comments