Guitar Tabs, Chords and Lyrics


Gilded C***    Cradle Of Filth



Band: Cradle Of Filth
Album: Nymphetamine
Song:  Gilded Cunt

Copyright (c)  RoadRunner Records 2004
Version 1.0 - 8/2/04

Transcribed By: Ryan
Email: Ryanmmfreek@yahoo.com


.  - palm mute           /  - slide up to
\  - slide down to       ~  - vibrato
h  - hammer on           b  - Bend
p  - pull off            Suffixes for bend
t  - tap                 f  - full bend    h - half bend
ph - pinched harmonic    q  - quarter bend t - tap bend
*  - see comment         ^  - Hold bend    r release bend
x  - Stuccatto           ~  - vibrato bend
,  - slight palm mute    () - ghost note, sustained note
"  - tremolo note         - Trill

Tunning C G C F A D
 (Riff 1)
|---------------------------------------------------------------------|
|---------------------------------------------------------------------|
|---------------------------------------------------------------------|
|---3-3--4-4-4-4---3-3--4-4-4--6---3-3--4-4-4-4-4-4-4-4--3-3--6-5-4---|
|---3-3--4-4-4-4---3-3--4-4-4--6---3-3--4-4-4-4-4-4-4-4--3-3--6-5-4---| (x4)
|---3-3--4-4-4-4---3-3--4-4-4--6---3-3--4-4-4-4-4-4-4-4--3-3--6-5-4---|
                     pm*                      pm*


|---------------------------------------------------------------------------|
|---------------------------------------------------------------------------|
|---------------------------------------------------------------------------|
|------------------------------------0-3-4-3---3-3-3--5-5-5--3-3-3--5-5-5---|
|------------5555--------------------0-3-4-3---1-1-1--3-3-3--1-1-1--3-3-3---| (x4)
|-55555555-----------5555-6666-8888--0-3-4-3--------------------------------|
                tremelo picking                   pm*


|----------------------------------------------------------------------------|
|----------------------------------------------------------------------------|
|----------------------------------------------------------------------------|
|---3-3--4-4-4-4-4-4-4-4--3-3- 4-4-4--6---3-3--4-4-4-4-4-4-4-4--3-3--6-5-4---|
|---3-3--4-4-4-4-4-4-4-4--3-3- 4-4-4--6---3-3--4-4-4-4-4-4-4-4--3-3--6-5-4---| (x2)
|---3-3--4-4-4-4-4-4-4-4--3-3- 4-4-4--6---3-3--4-4-4-4-4-4-4-4--3-3--6-5-4---|
                     pm*                      pm*

|-------------------------------------------------------------------------|
|-------------------------------------------------------------------------|
|-------------------------------------------------------------------------|
|----------------------------------0-3-4-3---3-3-3--5-5-5--3-3-3--5-5-5---|
|-----------5555-------------------0-3-4-3---1-1-1--3-3-3--1-1-1--3-3-3---| (x2)
|-55555555--------5555-6666-8888---0-3-4-3--------------------------------|
            tremelo picking                      pm*

|--------------------------------------------------------------------------------------------------------------------------|
|--------------------------------------------------------------------------------------------------------------------------|
|-------------------------------------------------------------14 12 14 12--------------------------------------------------|
|-12--14-15-12-14-15-17-15-14-15-17-15-14-15----15-14-15-------------------12--14-15-12-14-15-17-----17-15-14--14-15-12----| (x2)
|---------------------------------------------------------17------------------------------------------------------------15-|
|--------------------------------------------------------------------------------------------------------------------------|

|-------------------------------------------------------------------------------------------------|
|-------------------------------------------------------------------------------------------------|
|-------------------------------------------------------------------------------------------------|
|----------8----------8----------8----------------------------8----------8----------8----12--11---|
|----------8----------8----------8--65-54-4-3-1-2-------------8----------8----------8----12--11---|
|-99999999-8-99999999-8-99999999-8-------------------99999999-8-99999999-8-99999999-8----12--11---|

|-----------------------------------------------------------------------------------------------------------------------|
|-----------------------------------------------------------------------------------------------------------------------|
|-----------------------------------------------------------------------------------------------------------------------|
|--4-x-x-x-x-4-5-4-x-x-x-x-4-5-4-x-x-x-x-4-5--7-8-7-8-5-4-5-4--------4-4-4-5--4-4-4-5--4-4-4-5--7-8-7-8-5-4-5-4---------| (x4)
|--4-x-x-x-x-4-5-4-x-x-x-x-4-5-4-x-x-x-x-4-5--7-8-7-8-5-4-5-4-(x3)---4-4-4-5--4-4-4-5--4-4-4-5--7-8-7-8-5-4-5-4---------|
|--4-x-x-x-x-4-5-4-x-x-x-x-4-5-4-x-x-x-x-4-5--7-8-7-8-5-4-5-4--------4-4-4-5--4-4-4-5--4-4-4-5--7-8-7-8-5-4-5-4---------|

|------------------------------------------------------------------------------------|
|------------------------------------------------------------------------------------|
|------------------------------------------------------------------------------------|
|---3-3--4-4-4-4-4-4-4-4--3-3- 4-4-4--6---3-3--4-4-4-4-4-4-4-4--3-3--6-5-4-----------|
|---3-3--4-4-4-4-4-4-4-4--3-3- 4-4-4--6---3-3--4-4-4-4-4-4-4-4--3-3--6-5-4-----------| (x2)
|---3-3--4-4-4-4-4-4-4-4--3-3- 4-4-4--6---3-3--4-4-4-4-4-4-4-4--3-3--6-5-4-----------|
                     pm*                      pm*
|-------------------------|
|-------------------------|
|-------------------------|
|--3--6--5--4--4--5--4--3-|
|--3--6--5--4--4--5--4--3-|(x4)
|--3--6--5--4--4--5--4--3-|

|-----------------------------------------------------------------------|
|-----------------------------------------------------------------------|
|-----------------------------------------------------------------------|
|----------------------------------0-3-4-3---3-3-3--5-5-5--3-3-3--5-5-5-|
|-----------5555-------------------0-3-4-3---1-1-1--3-3-3--1-1-1--3-3-3-|(x2)
|-55555555--------5555-6666-8888---0-3-4-3------------------------------|
            tremelo picking                      pm*

|--------------------------------------------------------------------------------------------------------------------------|
|--------------------------------------------------------------------------------------------------------------------------|
|------------------------------------------------------------14 12 14 12---------------------------------------------------|
|-12--14-15-12-14-15-17-15-14-15-17-15-14-15----15-14-15-------------------12--14-15-12-14-15-17-----17-15-14--14-15-12----| (x2)
|---------------------------------------------------------17--------------------------------------15-----------------------|
|--------------------------------------------------------------------------------------------------------------------------|

|-----------------------------------------------------------------------------------------------|
|-----------------------------------------------------------------------------------------------|
|-----------------------------------------------------------------------------------------------|
|----------8----------8----------8----------------------------8----------8----------8----12--11-|
|----------8----------8----------8--65-54-4-3-1-2-------------8----------8----------8----12--11-|
|-99999999-8-99999999-8-99999999-8-------------------99999999-8-99999999-8-99999999-8----12--11-|

|---------------------------------------------------------------------------------------------------------------|
|---------------------------------------------------------------------------------------------------------------|
|---------------------------------------------------------------------------------------------------------------|
|--4-x-x-x-x-4-5-4-x-x-x-x-4-5-4-x-x-x-x-4-5--7-8-7-8-5-4-5-4--------4-4-4-5--4-4-4-5--4-4-4-5--7-8-7-8-5-4-5-4-|
|--4-x-x-x-x-4-5-4-x-x-x-x-4-5-4-x-x-x-x-4-5--7-8-7-8-5-4-5-4-(x3)---4-4-4-5--4-4-4-5--4-4-4-5--7-8-7-8-5-4-5-4-|
|--4-x-x-x-x-4-5-4-x-x-x-x-4-5-4-x-x-x-x-4-5--7-8-7-8-5-4-5-4--------4-4-4-5--4-4-4-5--4-4-4-5--7-8-7-8-5-4-5-4-|

|--------------------------------------------------------------------------|
|--------------------------------------------------------------------------|
|--------------------------------------------------------------------------|
|---3-3--4-4-4-4-4-4-4-4--3-3- 4-4-4--6---3-3--4-4-4-4-4-4-4-4--3-3--6-5-4-|
|---3-3--4-4-4-4-4-4-4-4--3-3- 4-4-4--6---3-3--4-4-4-4-4-4-4-4--3-3--6-5-4-|(x2)
|---3-3--4-4-4-4-4-4-4-4--3-3- 4-4-4--6---3-3--4-4-4-4-4-4-4-4--3-3--6-5-4-|
                     pm*                      pm*

|-------------------------|
|-------------------------|
|-------------------------|
|--3--6--5--4--4--5--4--3-|
|--3--6--5--4--4--5--4--3-|(x4)
|--3--6--5--4--4--5--4--3-|

|-----------------------------------------|
|-----------------------------------------|
|-----------------------------------------|
|-----------------------------------------|
|-----------------------------------------|
|--3333-6666-5555-44444444-5555-4444 3333-|
              pm*

|---|
|---|
|---|
|-2-|
|-2-|


Important: The song above is NOT stored on the Chordie server. The original song is hosted at www.xguitar.com. Chordie works as a search engine and provides on-the-fly formatting. Chordie does not index songs against artists'/composers' will. To remove this song please click here.

This song is displayed as text-only. Transposing and tuning is only available for chordpro-songs.

Login - add to songbook

Rating click stars to rate

Layout
Accuracy

SHARE PAGE  




You need to log in to post comments