Guitar Tabs, Chords and Lyrics


Medusa and Hemlock    Cradle Of Filth



BY:LEPERMESSIAH
ORIGINALLY SUBMITTED BY:sqweeky(props to him)

          (C,G,C,F,A,D)

D|----------------------------------------------------------------------------|       |---------|
A|-------------------------------------------------------------------------7b-|       |---------|
F|----------------------------------------------------------------------------|       |---------|
C|-7-7-8h7-7-7-7-10h8p7--7-7-8h7-7-7-7-10h8p7---------------------------------| 4X    |-5-4-3-1-|
G|-0-0-0---0-0-0---------0-0-0---0-0-0--------88887777888810101010-88887777---|       |-5-4-3-1-|
C|----------------------------------------------------------------------------|       |-5-4-3-1-|
                                                                                        . . . .

D|------------------------------------------------------------------------------|
A|------------------------------------------------------------------------------|
F|--------------------------------------------6-5-------------------------------|
C|-7-----------7-----------7-----------------------------5--8--7--8--5--8--6--9-| 2X
G|-5h6p5h6p5---5h6p5h6p5---5h6p5h6p5------3-5------------3--6--5--6--3--6--4--7-|
C|------------------------------------------------------------------------------|


D|------------------------------------------------------------------------------|
A|------------------------------------------------------------------------------|
F|------------------------------------------------------------------------------|
C|------------------------------------------------------------------------------| 2X
G|----------------------------------------------------------------3-------------|
C|-5555858-5555858-5555858-5555858-4444747-4444747--5-8-4-7-5-8-4---------------|
   ....... ....... ....... ....... ....... .......  . . . . . . . .

D|-------------------------------|
A|-------------------------------|
F|-------------------------------|  This is all I got for this part
C|-0---0h1-1---0-1-6-5-4---3/4-3-|
G|-0---0h1-1---0-1-6-5-4---3/4-3-|
C|-0---0h1-1---0-1-6-5-4---3/4-3-|
               . . . .


                             (Guitar 1)
D|-------------------------------------------------------------------|
A|-------------------------------------------------------------------|
F|-------------------------------------------------------------------| ______
C|---10-11-10---10---10-11-10---10---10-11-10---10---8-10-8---8------|       |
G|-8----------8----8----------8----8----------8-------------11-11----|       |
C|-------------------------------------------------------------------|       |
                                                                             |
                                                                             | 2X
                                                                             |
D|-------------------------------------------------------------------|       |
A|-------------------------------------------------------------------|       |
F|-------------------------------------------------------------------|       |
C|---9-10-9---9---9-10-9---9---9-10-9---9---7-9-7----7---------------| ______|
G|-7--------7---7--------7---7--------7-----------10---10------------|
C|-------------------------------------------------------------------|



                                  (Guitar 2)
D|------------------------------------------------------------------------------|
A|------------------------------------------------------------------------------|
F|----12-13-12----12----12-13-12----12----12-13-12----12---10-12-10----10-------| ______
C|-10----------10----10----------10----10----------10---------------13----13----|       |
G|------------------------------------------------------------------------------|       |
C|------------------------------------------------------------------------------|       |
                                                                                        |
                                                                                        | 2X
                                                                                        |
D|------------------------------------------------------------------------------|       |
A|------------------------------------------------------------------------------|       |
F|---11-12-11---11---11-12-11---11---11-12-11---11---9-11-9----9----------------|       |
C|-9----------9----9----------9----9----------9-------------12---12-------------| ______|
G|------------------------------------------------------------------------------|
C|------------------------------------------------------------------------------|



D|---------------------------------------------|
A|---------------------------------------------|
F|---------------------------------------------|
C|-7-----------3-----------6------------5--5---|
G|-5-----------1-----------4------------5--5---|
C|----0-0-0-0-----0-0-0-0-----0-0-0-0---5--5---|
      . . . .     . . . .     . . . .

            Back To The Beginning


                       (Guitar 1)
D|------------------------------------------------------|
A|------------------------------------------------------|
F|------------------------------------------------------| ______
C|------------------------------------------------------|       |
G|---5-6-5---5---5-6-5---5---5-6-5---5---3-5-3-1-3-1----|       |
C|-5-------5---5-------5---5-------5--------------------|       |
                                                                |
                                                                | 2X
                                                                |
D|------------------------------------------------------|       |
A|------------------------------------------------------|       |
F|------------------------------------------------------|       |
C|------------------------------------------------------| ______|
G|---4-5-4---4---4-5-4---4---4-5-4---4---2-4-2-0-2-0----|
C|-4-------4---4-------4---4-------4--------------------|



                       (Guitar 2)
D|------------------------------------------------------|
A|------------------------------------------------------|
F|------------------------------------------------------| ______
C|---7-8-7---7---7-8-7---7---7-8-7---7---5-7-5---5------|       |
G|-5-------5---5-------5---5-------5-----------8---8----|       |
C|------------------------------------------------------|       |
                                                                |
                                                                | 2X
                                                                |
D|------------------------------------------------------|       |
A|------------------------------------------------------|       |
F|------------------------------------------------------|       |
C|---6-7-6---6---6-7-6---6---6-7-6---7---4-6-4---4------| ______|
G|-4-------4---4-------4---4-------4-----------7---7----|
C|------------------------------------------------------|

               I dont know the solo yet...
                  but after the solo...

D|----------------------------------------------------|
A|----------------------------------------------------|
F|----------------------------------------------------|
C|-5--------5-5-5---5-5-5--------4-----4-4-4---4-4-4--| 2X
G|-5--------5-5-5---5-5-5--------4-----4-4-4---4-4-4--|
C|-5--------5-5-5---5-5-5--------4-----4-4-4---4-4-4--|



D|----------------------------------------------------------------------------|
A|-------------------------------------------------------------------------7b-|
F|----------------------------------------------------------------------------|
C|-7-7-8h7-7-7-7-10h8p7--7-7-8h7-7-7-7-10h8p7---------------------------------| 2X
G|-0-0-0---0-0-0---------0-0-0---0-0-0--------88887777888810101010-88887777---|
C|----------------------------------------------------------------------------|


D|----------------------------------------------------------------------------|
A|----------------------------------------------------------------------------|
F|----------------------------------------------------------------------------|
C|----------------------------------------------------------------------------| 4X
G|----------------------------------------------------------------3-----------|
C|-5555858-5555858-5555858-5555858-4444747-4444747--5-8-4-7-5-8-4-------------|
   ....... ....... ....... ....... ....... .......  . . . . . . . .


D|-------------------------------------------------------------|
A|-------------------------------------------------------------|
F|--------------------------------------------------------7----|
C|--------------------------------------------------------7----| 2X
G|---------------3---------------3---------------3--------5----|
C|-5-8-4-7-5-8-4---5-8-4-7-5-8-4---5-8-4-7-5-8-4---------------|


Important: The song above is NOT stored on the Chordie server. The original song is hosted at www.xguitar.com. Chordie works as a search engine and provides on-the-fly formatting. Chordie does not index songs against artists'/composers' will. To remove this song please click here.

This song is displayed as text-only. Transposing and tuning is only available for chordpro-songs.

Login - add to songbook

Rating click stars to rate

Layout
Accuracy

SHARE PAGE  




You need to log in to post comments