Guitar Tabs, Chords and Lyrics


Nemesis    Cradle Of Filth



Band: Cradle of Filth
Album: Nymphetamine
Song: Nemesis
Record Label: Roadrunner
Tuning: CGCFAD

listen for the exact rythms

gtr1
---0---------------------
---0---------------------
-------------------------
--------0------0---0-----
-2--4-5--4-3-6---6-------
-2--4-5--4-3-6---6-------X3

gtr 2
after above riff once
--------------------
--------------------
-9-11-12-11-8-------
--------------9-6---
--------------------
--------------------X2

gtr1
---------------------------------------------------------------------------
---------------------------------------------------------------------------
---------------------------------------------------------------------------
------------5-5-5-5-5-5-5-5-5----------------------------------------------
-2-2-2-2-2-23-3-3-3-3-3-3-3-3-7-7-7-7-7-7-7-7-5-5-5-5-5-5-5-5-9-9999-9-9-9-
-2-2-2-2-2-2------------------7-7-7-7-7-7-7-7-5-5-5-5-5-5-5-5-9-9999-9-9-9-X2
                                                pm.     . .     .... . . .

gtr2
----------------------
----------------------
----------------------
----------------------
-7-7777-10-99-7/9\7---
----------------------X4

----------------------
----------------------
----------------------
-7-7777-10-99-7/9\7---
----------------------
----------------------X2

-------------------------------
-------------------------------
-------------------------------
-------------------------------
-5-5-5-5-5-5-5-5-9-9999-9-9-9--
-5-5-5-5-5-5-5-5-9-9999-9-9-9--
 pm.     . .       .... . . .

gtr2 repeats above 3 riffs

                                                  hold abit
-7-5-7-8-7-5-7-8-10-7-8-5-7-8-5-7-5-2-3-0-2-3-5-7-7-8-7-5-7-8-7-5-7--
---------------------------------------------------------------------
---------------------------------------------------------------------
---------------------------------------------------------------------
---------------------------------------------------------------------
---------------------------------------------------------------------
trem pik............................................................

gtr1
-----------------------------------------------------------------------
-----------------------------------------------------------------------
-----------------------------------------------------------------------
--------5-5-5-5-5-5-5-5-5----------------------------------------------
-2-2-2-23-3-3-3-3-3-3-3-3-7-7-7-7-7-7-7-7-5-5-5-5-5-5-5-5-9-9999-9-9-9-
-2-2-2-2------------------7-7-7-7-7-7-7-7-5-5-5-5-5-5-5-5-9-9999-9-9-9-X2
                                            pm.     . .     .... . . .

gtr2
----------------------
----------------------
----------------------
----------------------
-7-7777-10-99-7/9\7---
----------------------X4

----------------------
----------------------
----------------------
-7-7777-10-99-7/9\7---
----------------------
----------------------X2

-------------------------------
-------------------------------
-------------------------------
-------------------------------
-5-5-5-5-5-5-5-5-9-9999-9-9-9--
-5-5-5-5-5-5-5-5-9-9999-9-9-9--
 pm.     . .       .... . . .

gtr1
-----------------------
-----------------------
-----------------------
-----------------------
-2-4-5-8--2-4-5-3-6----
-2-4-5-8--2-4-5-3-6----

gtr1
----------------------------------------------------------------------
----------------------------------------------------------------------
----------------------------------------------------------------------
----------------------------------------------------------------------
-10-101010-10-101010-5-555-5-555-10-101010-10-101010-3-653531310135---
-10-101010-10-101010-5-555-5-555-10-101010-10-101010-3----------------X3
    pm....    ......   ...   ...    ......    ......

gtr1
-----------------------------------
-----------------------------------
-3-5-6-5-3-5---------3-5-6-5-------
-------------3-4-1-4---------4-----
-------------------------------7---
-------------------------------7---

-----------------5-6-8-6-8-9-11-8-9-8-5-6-
-------4-6-7-6-7--------------------------
-3-5-6------------------------------------
------------------------------------------
------------------------------------------
------------------------------------------

----------------------------------------------
----------------------------------------------
----------------------------------------------
-3-3-3-7-7-4-4-4-4-4-7-7-3-3-3-7-7-4-4--------
-1-1-1-5-5-2-2-2-2-2-5-5-1-1-1-5-5-2-2--------
---------------------------------------3-2-5--X4

gtr1
---0---------------------
---0---------------------
-------------------------
--------0------0---0-----
-2--4-5--4-3-6---6-------
-2--4-5--4-3-6---6-------X3

gtr 2
after above riff once
--------------------
--------------------
-9-11-12-11-8-------
--------------9-6---
--------------------
--------------------X2

gtr1
---------------------------------------------------------------------------
---------------------------------------------------------------------------
---------------------------------------------------------------------------
------------5-5-5-5-5-5-5-5-5----------------------------------------------
-2-2-2-2-2-23-3-3-3-3-3-3-3-3-7-7-7-7-7-7-7-7-5-5-5-5-5-5-5-5-9-9999-9-9-9-
-2-2-2-2-2-2------------------7-7-7-7-7-7-7-7-5-5-5-5-5-5-5-5-9-9999-9-9-9-X2
                                               pm.     . .     .... . . .

gtr2
----------------------
----------------------
----------------------
----------------------
-7-7777-10-99-7/9\7---
----------------------X4

----------------------
----------------------
----------------------
-7-7777-10-99-7/9\7---
----------------------
----------------------X2

-------------------------------
-------------------------------
-------------------------------
-------------------------------
-5-5-5-5-5-5-5-5-9-9999-9-9-9--
-5-5-5-5-5-5-5-5-9-9999-9-9-9--
 pm.     . .       .... . . .

gtr2 repeats above 3 riffs

                                                 hold abit
-7-5-7-8-7-5-7-8-10-7-8-5-7-8-5-7-5-2-3-0-2-3-5-7-7-8-7-5-7-8-7-5-7--
---------------------------------------------------------------------
---------------------------------------------------------------------
---------------------------------------------------------------------
---------------------------------------------------------------------
---------------------------------------------------------------------X2
trem pik............................................................

gtr1
-----------------------
-----------------------
-----------------------
-----------------------
-2-4-5-8--2-4-5-3-6----
-2-4-5-8--2-4-5-3-6----

gtr1
----------------------------------------------------------------------
----------------------------------------------------------------------
----------------------------------------------------------------------
----------------------------------------------------------------------
-10-101010-10-101010-5-555-5-555-10-101010-10-101010-3-653531310135---
-10-101010-10-101010-5-555-5-555-10-101010-10-101010-3----------------X3
    pm....    ......   ...   ...    ......    ......

gtr1
-----------------------------------
-----------------------------------
-3-5-6-5-3-5---------3-5-6-5-------
-------------3-4-1-4---------4-----
-------------------------------7---
-------------------------------7---

-----------------5-6-8-6-8-9-11-8-9-8-5-6-
-------4-6-7-6-7--------------------------
-3-5-6------------------------------------
------------------------------------------
------------------------------------------
------------------------------------------

----------------------------------------------
----------------------------------------------
----------------------------------------------
-3-3-3-7-7-4-4-4-4-4-7-7-3-3-3-7-7-4-4--------
-1-1-1-5-5-2-2-2-2-2-5-5-1-1-1-5-5-2-2--------
---------------------------------------3-2-5--X2

-----------------------------------------------
-----------------------------------------------
-----------------------------------------------
-5-5-5-9-9-6-6-6-6-6-9-9-5-5-5-9-9-6-6---------
-3-3-3-7-7-4-4-4-4-4-7-7-3-3-3-7-7-4-4---------
---------------------------------------5-4-7---X2

-----------------
-5-7-8-7-4-------
-----------4-2---
-----------------
-----------------
-----------------X2

-------------------------------------------
-------------------------------------------
-------------------------------------------
-9-119-119-119-112-4-2-4-------------------
-7-9-7-9-7-9-7-9-0-2-0-2-5-55-5-9-9-9-9/---
-------------------------5-55-5-9-9-9-9/---Keeps repeating until faded out

if any corrections or parts i missed out plz send em too:


Important: The song above is NOT stored on the Chordie server. The original song is hosted at www.xguitar.com. Chordie works as a search engine and provides on-the-fly formatting. Chordie does not index songs against artists'/composers' will. To remove this song please click here.

This song is displayed as text-only. Transposing and tuning is only available for chordpro-songs.

Login - add to songbook

Rating click stars to rate

Layout
Accuracy

SHARE PAGE  




You need to log in to post comments