Guitar Tabs, Chords and Lyrics


A Crescendo of Passion Bleeding    Cradle Of Filth



Artist cradle of filth
Song 'A Crescendo Of Passion Bleeding'
Tabbed by overcast




Tune all strings down one full step(so that the sixth string is "D")

Riff 1(tremolo pick all):"Spells lay daggers before me..."
------------------------------------
------------------------------------
------------------------------------
--9---10\\9-10/12--10---10/12-10/12--
--7----8\\7--8/10---8----8/10--8/10--
------------------------------------

Fill 1:
------------------------------------
------------------------------------
------------------------------------
--2---------------------------------
--2---------------------------------
--0---------------------------------

Riff 2(*Natural Harmonics, listen to the song):
------------------------------------
------------------------------------
------------------------------------
------------------------------------
-/8---/8---/8-----------------------
-/6-0-/6-0-/6---(*3/7\\3)------------

Fill 2(Listen to the song for the rhythm):
------------------------------------
------------------------------------
------------------------------------
------------------------------------
--2------2--------------------------
--0------0--------------------------

Riff 3a(tremolo pick all):
------------------------------------
------------------------------------
------------------------------------
------------------------------------
------------------------------------
--0---3/7---3\\1---3/7/8\\7\\5---------

Riff 3b(tremolo pick all):
------------------------------------
------------------------------------
------------------------------------
------------------------------------
--0---3/7---3\\1---3/7/8\\7\\5---------
------------------------------------

Fill 3:
------------------------------------
------------------------------------
------------------------------------
------------------------------------
--8---9\\8\\5/7--3--------------------
--6---7\\6\\3/5--1--------------------

Riff 4(tremolo pick all): "A Black Age of Fire..."
----------------------------------------------------
---------------14----------------------13-----------
------13-14-13----13-14-13----12-13-12----12-13-12--
--11-----------------------10-----------------------
----------------------------------------------------
----------------------------------------------------

Riff 5(Listen to the song for how to play this one):
----------------------------------------------------
----------------------------------------------------
----------------------------------------------------
--6--4--2-----2--6--8--9-11--14--13-----------------
--4--2--0--6--0--4--6--7--9--12--11-----------------
-----------4----------------------------------------

Riff 6:"The blood is the life"
-----------------------------------------
-----------------------------------------
-----------------------------------------
-----------------------------------------
--2--2-2-3-3-2--5\\4\\3\\2--3-3----5---3----
--0--0-0-1-1-0--3\\2\\1\\0--1-1--0-3-0-1-0--

Fill 4(tremolo pick):"Chaos my steed in the thick clinging dust.."
------------------------------------
------------------------------------
------------------------------------
------------------------------------
--8---------------------------------
------------------------------------

Fill 5:
------------------------------------
------------------------------------
------------------------------------
--9-------------------------8-------
--7-------------------------6-------
--7-------------------------6-------

Riff 7a:"The incessant pull of death surrounds me..."
-------------------------
-------------------------
-------------------------
-------------------------
--7--7-7-7--7-7-8-7-6-7--
-------------------------

Riff 7b:
-------------------------
-------------------------
-------------------------
-------------------------
--6--6-6-6--6-6-7-6-5-6--
-------------------------

Clean tone "solo" at the end(All the notes(I think)have been tabbed,
you'll have to listen to the song for the order to play them in.):
--------------------------------------------------------------------
-------------------------------------------8-10-8-6-8-6-------------
---------------------------------------9----------------9---7-5-4-5-
-------9-10-9-7----7-------9-10-9-/12-------------------------------
--7-------------10----7---------------------------------------------
--------------------------------------------------------------------

Here's how the song goes:

Riff 1 x10
Fill 1
Riff 2 x4
Fill 2
Riff 2 x4
Fill 2 x2
Riff 3a x2
Riff 3b x2
Riff 3a x2
Fill 3
Riff 4 x4
Riff 5 x3
Riff 3a x2
Riff 3b x2
Riff 3a x2
Fill 3
Riff 6 x4
Fill 4 x4
Riff 6 x4
Fill 4 x4
Fill 5
Riff 7a x2
Riff 7b x2
Riff 7a x2
Riff 7b x2
Clean "Solo"
Fill 3


Important: The song above is NOT stored on the Chordie server. The original song is hosted at www.xguitar.com. Chordie works as a search engine and provides on-the-fly formatting. Chordie does not index songs against artists/composers will. To remove this song please click here.

This song is displayed as text-only. Transposing and tuning is only available for chordpro-songs.

Login - add to songbook

Rating click stars to rate

Layout
Accuracy

SHARE PAGE  




You need to log in to post comments