Guitar Tabs, Chords and Lyrics


The Black Goddess Rises    Cradle Of Filth



artist: Cradle of Filth
song: The Black Godess Rises 2
tuning: all strings down a whole step and 6th down 2 whole steps
tabed by: goth_child_666(@hotmail.com)

~ = vibrato
. = bass fill
pm = palm mute
_ = what notes to palm mute

^ = bend

 =================================
|   THIS IS THE VERSION FROM      |
|   BITTER SUITES TO SUCCUBI      |
 =================================

---------------------
---------------------
---------------------
--0---1-3-1----------
--0---1-3-1---/8-6---
--0---1-3-1----------

verse:
--------------------------------
--------------------------------
--------------------------------
-7--------------7---------------(this can also be played a whole step
-7---7h8-6~~----7---7h8---------  lower)
-7--------------7-------8~~-----

---------------------------------
---------------------------------
---------------------------------
-7-----------------7-------------
-7---7h8-6---6-6---7---7h8p7-----
-5-----------------7---------8~~-


i dont what to call this part so i'll just say fill >:P
----------------------------
----------------------------
----------------------------
---4-4----4-4----4-4--------
---4-4----4-4----4-4--------
---4-4----4-4----4-4--------
...   ....   ....   ........



second part of fill (gtr. 2)  only bend a tiny bit 4 both guitars
------------------------------------------------------------------
------------------------------------------------------------------
------------------------------------------------------------------
---444444-444444-444444-444444-44444444444------------------------
---444444-444444-444444-444444-44444444444------------------------
---444444-444444-444444-444444-44444444444----444-333-------------
pm_____________________________


second part of fill (gtr. 1)  play in between waht grt 2 plays
-------------------------------------------------------
-------------------------------------------------------
-------------------------------------------------------
-----4-----4-----4-----4-----4-------------------------
-----4-----4-----4-----4-----4-------------------------
-----4-----4-----4-----4-----4-----444-333-2^2^2^-222--



part after fill (gtr. 2)
--------------------------------------------------
--------------------------------------------------
--------------------------------------------------
-777777777-1010-99--777777------------------------
-777777777-1010-99--777777------------------------
-777777777-1010-99--777777----444-333-2^2^2^-222--
pm________________________________________________


pre chorus (gtr. 1)
--------------------------------------------------
--------------------------------------------------
--------------------------------------------------
--------------------------------------------------
------7-------10--9h10--7----------------------------
--------------------------------------------------
------------------------------444-333-2^2^2^-222--
                            pm___________________




pre chorus (gtr. 1) cont.
----------------------------------------------------
----------------------------------------------------
----------------------------------------------------
----------------------------------------------------
------7-7-7-7--10-9h10--7----------------------------
----------------------------------------------------
--------------------------------444-333-2^2^2^-222--
                             pm____________________





chorus (both guitars)
---------------------------------------------------------
---------------------------------------------------------
---------------------------------------------------------
---------------------------------------------------------
-7-7-7-7-7-7---------------------------------------------
--------------9-9-9-8-8-8-4-4-4-4-4-4-4-4-4-4-4-4--------
pm_______________________________________________________



---------------------------------------------------------
---------------------------------------------------------
---------------------------------------------------------
---------------------------------------------------------
-7-7-7-7-7-7---------------------------------------------
--------------9-9-9-8-8-8-7-7-7-7-7-7-7-7-7-7-7-7--------
pm_______________________________________________________



interlude(with keyboard or cello or whatever) guitar come in at 4:25

-----------------------------------------------------------------------
-----------------------------------------------------------------------
-----------------------------------------------------------------------
--2----5---------5--7-------7--9-----------9----9-9----9-9----9-9------
--2----5---------5--7-------7--9-----------9----9-9----9-9----9-9------
--2----5---------5--7-------7--9-----------9----9-9----9-9----9-9------



then u just repeat some stuff thats before the interlude,and that all!
once again,this tab is thought up intirely by me,and NOT STOLEN!!
and if ne 1 knows the solo from amor e morte,or has a tab for totured soul asylum,
PLEASE TELL ME!!



Important: The song above is NOT stored on the Chordie server. The original song is hosted at www.xguitar.com. Chordie works as a search engine and provides on-the-fly formatting. Chordie does not index songs against artists'/composers' will. To remove this song please click here.

This song is displayed as text-only. Transposing and tuning is only available for chordpro-songs.

Login - add to songbook

Rating click stars to rate

Layout
Accuracy

SHARE PAGE  




You need to log in to post comments