White Room

Cream

 GmFDmCGmFDmCAsus
--10---8----5---8----10----8---5---------
--11--10----6---9----11---10---6---8---8-
--12--10----7--10----12---12---7---9---9-
------------0------------------0--10---7-
---------------------------------------0-
-----------------------------------------

Verse Chords:
 DG/CG/BBbC
--------------------------
----3---3------3---3---5--
----2---0------0---3---5--
----0---0------0---3---5--
--------3------2---1---3--
--------------------------

Chords for the bridge, played with heavy wah-wah, are:
(with wah-wah)
 CGBbACGBbCD
-0---3-------------0---3------------------------------
-1---0---3----2----1---0---3----5----7----------------
-0---0---3----2----0---0---3----5----7--------7-7---7-
-2---0---3----2----2---0---3----5----7---7h9------9---
-3---2---1----0----3---2---3h5--5h7--7h9--------------
-----3-----------------3------------------------------

second verse riffs(with wah:
-------------------------------------
-/13-13-13-10------------------------
--------------12-10------------------
--------------------12-10------------
--------------------------12-10-8----
----------------------------------10-
------------------------------------------------------
-------10-------10-------10--------13-----------------
-12(14)---12(14)---12(14)----12(14)---12(14)-12-10----
---------------------------------------------------12-
------------------------------------------------------
------------------------------------------------------
-----------------------------------
--------------------13-------------
-----10-12-10-12/14----14\12-10----
-/12----------------------------12-
-----------------------------------
-----------------------------------
---------------------------------
---------------------------------
-10(11)--------------------------
--------12p10h12-----------------
---------------------------------
---------------------------------

Thirds verse:
---------------------------------
-13-10---------------------------
-------12(14)-10----10-10--------
-----------------12-------12-----
---------------------------------
---------------------------------
-----------------16p15-16p15----------------
-----15-15--17---------------15~------15-15-
-/16------------------------------/16-------
--------------------------------------------
--------------------------------------------
--------------------------------------------

Lyrics:
 GmFDC
 Ah  Ah Ah  Ah
 GmFDCA7
 Ah  Ah Ah  Ah  Ah
 DG/CG/BBbCDG/CG/BBbC
In a white room    with black curtains     near the stations    
 DG/CG/BBbCDG/CG/BBbC
Blackroof country   , no gold pavements,     tired starlings,   
 DG/CG/BBbCDG/CG/BBbC
Silver horses   run down moonbeams      in your dark eyes.    
 DG/CG/BBbCDG/CG/BBbC
Dawnlight smiles   on your leaving,       my contentment.   
 CGBbA
I'll wait in this place where the sun never shines.
 CGBbCCD
Wait in this place where the shadows run from themselves.
You said no strings could secure you at the stations.
Platform ticket, restless diesels, goodbye windows.
I walked into such a sad time at the station.
As I walked out felt my own need just beginning.
I'll wait in the queue when the trains come back
I'll wait for you where the shadows run from themselves
 GmFDC
 Ah  Ah Ah  Ah
 GmFDCA7
 Ah  Ah Ah  Ah  Ah
At the party she was kindness in the hard crowd
Consolation from the old wound now forgotten
Yellow tigers crouched in jungles in her dark eyes
She's just dressing goodbye windows, tired starlings
I'll sleep in this place with the lonely crowd,
Lie in the dark where the shadows run from themselves
 GmFDC
 Ah  Ah Ah  Ah
 GmFDCA7
 Ah  Ah Ah  Ah  Ah
Solo:
--------10--------------10-------------10------------------------------------------
-----------13--------------13-------------13---------------------------------------
-12(14)-------12(14)~---------12(14)~--------12(14)12-10-12----10~--12-10-12-10-12-
------------------------------------------------------------12---------------------
-----------------------------------------------------------------------------------
-----------------------------------------------------------------------------------
------------------------10-----------10-------------------------------
-----------------13(14)----13(15)~-------13---------------------------
-10--12--10----------------------------------12(14)-12-10----10-12/14-
-------------12-------------------------------------------12----------
----------------------------------------------------------------------
----------------------------------------------------------------------

10x 3x
-||------13-||------------------------------------------10--------------||-----------||
-||13h15----||-13------------------------------------------13-----------||-----------||
-||---------||----14\12-10-----------10----12-10-12(14)--------12(14)12-||-10h12p10--||
-||---------||-------------12-10-12-----12------------------------------||---------12||
-||---------||----------------------------------------------------------||-----------||
-||---------||----------------------------------------------------------||-----------||
----------------------------------------------------------------------------
-----------------------------------------------------13---10-13-10-13-10-13-
-10~------------------10----12p10-----------10----10------------------------
------12p10-----10h12----12-------12p10--12----12---------------------------
------------12--------------------------------------------------------------
----------------------------------------------------------------------------
-10--------------------------10------------------------------------------------
----13-10-13-10-13-10-13--13----13-10----10------------------------------------
--------------------------------------12----10-12-10~----------14(16)-12(14)~~-
------------------------------------------------------12-10-12-----------------
-------------------------------------------------------------------------------
-------------------------------------------------------------------------------
------------------------------------------------------10---------------------------
----13---------------------------------------------------13-10---------------------
-14----12(14)12-10----10-12-12(14)12--10----10-12(14)----------12(14)12-10----12---
-------------------12--------------------12--------------------------------12---12-
-----------------------------------------------------------------------------------
-----------------------------------------------------------------------------------
----------------------------------------------------------------------13-------
-----------13--13-----13-----15(18)--15(18)~15-13-15-13h15--15--13h15----------
-10-12/14--14--14--14----14----------------------------------------------14\12-
-------------------------------------------------------------------------------
-------------------------------------------------------------------------------
-------------------------------------------------------------------------------
-------------------------------------------10---------------13(15)-13-10h13p10----
----------------------------------------13----13(15)-(15)13--------------------13-
-10-12-10----------10----12-10----------------------------------------------------
----------12-10-12----12-------12-10-12-------------------------------------------
----------------------------------------------------------------------------------
----------------------------------------------------------------------------------
-10--10-----10~--10------------------------------------------------
---------13---------13---------------------------------------------
-----------------------12(14)-(14)12-10-12-10----------10----12-10-
----------------------------------------------12-10-12----12-------
-------------------------------------------------------------------
-------------------------------------------------------------------

4x
||----------------||
||----------------||

||-12(14)--14(16)-||
||----------------||
||----------------||
||----------------||



A A7 Asus Bb C D Dm F G G/B G/C Gm
variations - click chord images
Transpose chords:
Tuning:
Cool service:
View: Size:
A  A  A
Rating:
Layout:
  • Currently 2.7/5 Stars.
  • 1
  • 2
  • 3
  • 4
  • 5
 
Accuracy:
  • Currently 3.4/5 Stars.
  • 1
  • 2
  • 3
  • 4
  • 5
 
click stars to rate
Chordie recommends:
Check out JamPlay.com for online video guitar lessons
Songbook:
Login to add this song to your songbook
Support the artist
Preview/buy this song
MSN Music
Why this non-profit ad?

 
login to add comments/video/corrections