In America

Creed



 DF(maj7)/DE/D
e------------------------------------------------------------------|
b-----------------------10-10--------------------------------------|
g-7---7--7--7--7--10-10-10-10-10-10-9--9---9--10-9--9---9--9--9--9-|
d-4---4--4--4--4--7--7--7--7--7--7--6--6---6--7--6--6---6--6--6--6-|
a-5---5--5--5--5/-8--8--8--8--8--8/-7--7---7--8/-7--7---7--7--7--7-|
d-0---0--0--0--0--0--0--0--0--0--0--0--0---0--0--0--0---0--0--0--0-|

 DF(maj7)/DE/D
e---------------------------------------------|
b-----------------------10-10-----------------|
g-7---7--7--7--7--10-10-10-10-10-10-9--9------|
d-4---4--4--4--4--7--7--7--7--7--7--6----6----|
a-5---5--5--5--5/-8--8--8--8--8--8/-7------7--|
d-0---0--0--0--0--0--0--0--0--0--0--0---------|

CHORUS
 DGEm/GG
e-----------------------------------------------------|
b-----------------------------------------------------|
g-----------------------------------------------------|
d-0--0-0--0-0--0-0--0-0-0-0-5--5-5--5-5--5-5--5-5-5-5-|
a-0--0-0--0-0--0-0--0-0-0-0-5--5-5--5-7--5-5--5-5-5-5-|
d-0--0-0--0-0--0-0--0-0-0-0-5--5-5--5-5--5-5--5-5-5-5-|

 BF/BBEB/EE
e-----------------------------------------------------|
b-----------------------------------------------------|
g-----------------------------------------------------| 2x
d-9--9-9-9--9-9--9-9-9-9--2--2-2--4--2-2--2-2-2-2-(1)-|
a-9--9-9-10-9-9--9-9-9-9--2--2-2--2--2-2--2-2-2-2-(1)-|
d-9--9-9-9--9-9--9-9-9-9--2--2-2--2--2-2--2-2-2-2-(1)-|

BRIDGE
 DFED#
       m..   
e-----------------------|
b-----------------------|
g-----------------------| 4x
d-0--------0--0-0-3-2-1-|
a-0--0-----0--0-0-3-2-1-|
d-0--0-0-0-0--0-0-3-2-1-|

INTERLUDE
e---------------------------------|
b---------------------------------|
g---------------------------------| 4x   then 8x at double speed
d---------------------------------|
a---8-7---6-7---6-5---3-5-------8-|
d-0-----0-----0-----0-----0-0-0---|






























B B/E D D# E E/D F F/B G
variations - click chord images
Transpose chords:
Tuning:
Cool service:
View: Size:
A  A  A
Rating:
Layout:
  • Currently 0/5 Stars.
  • 1
  • 2
  • 3
  • 4
  • 5
 
Accuracy:
  • Currently 1.5/5 Stars.
  • 1
  • 2
  • 3
  • 4
  • 5
 
click stars to rate
Chordie recommends:
Learn how to play guitar at JamPlay.com
Songbook:
Login to add this song to your songbook
Support the artist
Preview/buy this song
MSN Music
Why this non-profit ad?

 
login to add comments/video/corrections