My Sacrifice

Creed

 C#m(add9Aadd9
D |---------0-------------|----------------------------|
D |-----------0-----------|----------0-------0---------|
A |---4---------4---------|-------12------12-----------|
D |-----4---------4-------|----12------12--------------|
A |-2-----2-------------0-|-10---------------------0-0-|
D |-----------------------|------------------------0-0-|

 E
D |-0-0-0-0-0-----0-0-|-0-0-0-0-0-----0----------|
D |-0-0-0-0-0-----0-0-|-0-0-0-0-0-----0----------|
A |-5-4-4-5-5-----5-5-|-5-4-4-9-9-----9/10-------|
D |-0-0-0-0-0-----0-0-|-0-0-0-0-0-----0----------|
A |-5-4-4-5-5-----5-5-|-5-4-4-9-9-----9/10-----0-|
D |-0-0-0-0-0-----0-0-|-0-0-0-0-0-----0--------0-|

 C#m(add9Aadd9
D |---------0-------------|------------------------|
D |-----------0-----------|----------0-------0-----|
A |---4---------4---------|-------12------12-------|
D |-----4---------4-------|----12------12----------|
A |-2-----2-------------0-|-10---------------------|
D |-----------------------|------------------------|

Part IIa: Verse (Guitar, Rectified Distortion)
==============================================
 E
D |---------0---0-------0---0-|---------0---0-------0---0---|
D |---------0---0-------0---0-|---------0---0-------0---0---|
A |-5-4-4-5-5---5---4-4-5---7-|-5-4-4-5-5---5---4-4-5---4---|
D |-0-0-0-0-0---0---0-0-0---0-|-0-0-0-0-0---0---0-0-0---0---|
A |-5-4-4-5---------4-4-5---7-|-5-4-4-5---------4-4-5---4-0-|
D |-0-0-0-0---------0-0-0---0-|-0-0-0-0---------0-0-0---0---|

 C#m(add9Aadd9
D |-----0---0---0--------0--0--|-0----0----0--0--0--0--0--0----|
D |-----0---0---0--------0--0--|-0----0----0--0--0--0--0--0----|
A |-----4---4---4--------12-12-|-12---12---12-12-12-12-12-12---|
D |-4---------------4/12-12-12-|-12---12---12-12-12-12-12-12---|
A |-2---------------2/10-10-10-|-10---10---10-10-10-10-10-10---|
D |----------------------------|-------------------------------|

Part IIb: Verse (Bass)
======================
 E
F |-----------------------------|-----------------------------|
C |-2---2-2-2---2-2-2-(2)-2-2-2-|-2---2-2-2---2-2-2-(2)-2-2-2-|
G |-----------------------------|-----------------------------|
D |-----------------------------|-----------------------------|

 C#m(add9Aadd9
F |-----------------------------------|-2---2-2-(2)---2-1-2-2-2-2-------|
C |---------------6-(6)-6---------2-2-|---------------------------------|
G |-4---4-4-4---4---------4-(4)-4-----|---------------------------2-2-2-|
D |-----------------------------------|---------------------------------|

Part IIIa: Chorus (Guitar, Rectified Distortion)
================================================
 Eadd9B/D#
D |-----0---0-0-0-0-0-0---0-0-|-0---0---0-0-0-0--0-0-0-0-|
D |-----0---0-0-0-0-0-0---0-0-|-0---0---0-0-0-0--0-0-0-0-|
A |-----7---7-7-7-7-7-7---7-7-|-7---7---7-7-7-7--7-7-7-7-|
D |-0---7---7-7-7-7-7-7---7-7-|-7---7---7-7-7-7--7-7-7-7-|
A |-0---0---0-0-0-0-0-0---0-0-|-4---4---4-4-4-4--4-4-4-4-|
D |-0---0---0-0-0-0-0-0---0-0-|--------------------------|

 C#m7A
D |-0---0--0-0-0-0---|-----------------------------|
D |-0---0--0-0-0-0---|-----------------------------|
A |-0---0--0-0-0-0---|-----------------------------|
D |-4---4--4-4-4-4-5-|-(5)-5---0-5-3-0-3-(3)-3-5-3-|
A |-2---2--2-2-2-2-5-|-(5)-5---0-5-3-0-3-(3)-3-5-3-|
D |----------------5-|-(5)-5---0-5-3-0-3-(3)-3-5-3-|

Part IIIb: Chorus (Bass)
========================
 Eadd9B/D#
F |---------------------------------|---------------------------------|
C |-2---2-2-2---2-2-1-2-2-2-2-2-2-2-|-1---1-1-1---1-1-1-1-2-2-4-4-4---|
G |---------------------------------|-------------------------------2-|
D |---------------------------------|---------------------------------|

 C#m7A
F |-------------------------------|-------------------------------|
C |---------------------1-1-2-2---|-------------------------------|
G |-4---4-4-4---4-4-4-4---------0-|-(0)-0-0-----------------------|
D |-------------------------------|-----------0-5-3-0-3-(3)-3-5-3-|

Song Structure
==============
Intro
Verse x 2
Chorus
Verse x 2
Chorus
Bridge
Chorus
Bridge
=====( SECTION 2: Guitar Chords )=========================================
C#m x46654
A x02220
E 022100
B/D# x64442 or xx1442
C/E 032010
Intro: | C#m | A | E | E | C#m | A |
Verse 1: | E | E | C#m | A | instr. |: E | E | C#m | A :|
Chorus 1: |: E | B/D# | C#m | A :|
Verse 2: | E | E | C#m | A | instr. |: E | E | C#m | A :|
Chorus 2: |: E | B/D# | C#m | A :|
Bridge: | E | E | E | E | C/E | C/E | E | E |
Chorus 3: |: E | B/D# | C#m | A :| (4x)
Bridge: | E | E | E | E | C/E | C/E | E | E |
=====( SECTION 3: Lyrics )================================================
Hello my friend we meet again
It's been a while where should
we begin... feels like forever
Within my heart are memories
Of perfect love that you gave to me
I remember
When you are with me
I'm free... I'm careless... I believe
Above all the others we'll fly
This brings tears to my eyes
My sacrifice
We've seen our share of ups and downs
Oh how quickly life can turn around in
an instant
It feels so good to reunite
Within yourself and within your mind
Let's find peace there
When you are with me
I'm free... I'm careless... I believe
Above all the others we'll fly
This brings tears to my eyes
My sacrifice
I just want to say hello again


A Aadd9 C#m7 E Eadd9
variations - click chord images
Transpose chords:
Tuning:
Cool service:
View: Size:
A  A  A
Rating:
Layout:
  • Currently 3.2/5 Stars.
  • 1
  • 2
  • 3
  • 4
  • 5
 
Accuracy:
  • Currently 2.7/5 Stars.
  • 1
  • 2
  • 3
  • 4
  • 5
 
click stars to rate
Chordie recommends:
Learn how to play guitar at JamPlay.com
Songbook:
Login to add this song to your songbook
Support the artist
Preview/buy this song
MSN Music
Why this non-profit ad?

 
login to add comments/video/corrections