Chordie logo


The Night Time Is the Right Time   Creedence Clearwater Revival

You [E]know the night time oh is the right time

To be with the one you love
[A]I said the night time oh is the right time
to [E]be with the one you love
I said the [B7]night time oh is the [A7]right time
to be with the one you [E]love [B7]

Verse
[E]Baby ! , I said ahhhh baby

Baby ! , come on and dirve me crazy lord
[A7]You know I love you always thinkin' of you
[E]Hey baby,  oh I said baby
You know the [B7]night time oh is the [A7]right time
to be with the one you [E]love
(said) [B7]" All right sing the song to me "

Guitar Solo

Chorus ( New first line )  I said the night time.......--------------------------------------------------------------------------

INTRO Bend G string at 14th fret while playing B string at 12th fret

--------------------------------|----------|----7-----------------------------
-15-12------------------------12|----14-12-|----10----------------------------
--------14-12-----------------12|----14-12-|----8-----------------------------
---------------14^12-14----14---|-14-------|----7-----------------------------
--------------------------------|----------|----9-----------------------------
--------------------------------|----------|----7-----------------------------

3 times B7
(E)7f You know the right time (wah-do-day) ohh is the right time (wah-do-day)
To be (wah-do-day) with the one you love (wah-do-day)
(A)5f I said the night time(wah-do-day) ohh is the right time (wah-do-day)
(E)7f To be (wah-do-day) with the one you love (wah-do-day)
(B7)7f You know the night time (wah-do-day) (A)5f ohh is the right time
(wah-do-day)(E)7f to be with the one you love (2 wah-do-days followed by B7 for 8 beats)

Baby(WDD) I said a baby(wdd) Baby(wdd) come on and drive my crazy love(wdd)
You know I love you(wdd) always thinkin'of you(wdd) hey baby(WDD) allright
I said a baby(wdd) you know the night time(wdd) ohh is the right time(wdd)
to be with the one you love(2wdd, 8xB7)

----11/12-12-12-12-12-11/12-12-12-12-12-12|-11/12-12-12-12-12-12-|11/12-12-12-
----11/12-12-12-12-12-11/12-12-12-12-12-12|-11/12-12-12-12-12-12-|11/12-12-12-
------------------------------------------|----------------------|------------
------------------------------------------|----------------------|------------
------------------------------------------|----------------------|------------
------------------------------------------|----------------------|------------

SOLO riff 1 riff2

--------------|-------|-------------|-------|-----------------------------0---
--------------|-------|-------------|-------|-----------------------------3---
-14------14v--|-------|16-----16-14v|-------|-----------------------------1---
-14--14b-14v--|-------|16-----16-14v|-------|-----------------------------2---
--------------|-------|-------------|-------|--7-7-5-5--------------2-----2---
--------------|-------|-------------|-------|----------7-7-5-3-0-4--------0---

riff 1 riff 2 ENDING 8 beats

Important: The song above is NOT stored on the Chordie server. The original song is hosted at www.xguitar.com. Chordie works as a search engine and provides on-the-fly formatting. Chordie does not index songs against artists/composers will. To remove this song please click here.

Text color:
Chord color:
Chord grids: 
Font size:    
Page size: 

A A7 B7 E
variations - click chord images

Login - add to songbook

Transpose chords

Tuning

Rating click stars to rate

Layout
Accuracy

SHARE PAGE  




You need to log in to post comments