Guitar Tabs, Chords and Lyrics


Tombstone Shadow    Creedence Clearwater Revival



Comments and asks to: Joliet@latinmail.com (Eduard P.)
This file is all my own work


TOMBSTONE SHADOW
Creedence Clearwater Revival


Rhythm Part : Key of G 12 bars

Fills/ Solo : Key of E ( E blues Scale)

R1: Riff 1 R2: Riff 2 ....



Riff 1 Riff 2
E------------------------------------|-----------------------------------|
B------------------------------------|-----------------------------------|
G---10b11---10b11--12----------------|--14b15-14b15--12--12--------------|
D------------------------------------|-----------------------------------|
A------------------------------------|-----------------------------------|
e------------------------------------|-----------------------------------|

Riff 3 Riff 4
*repeat 4 times
E------------------------------------|-----------------------------------|
B------------------------------------|-----------------------------------|
G-------12-14-14b15r14--12-----------|---15p12---------------------------|
D-13/14------------------------------|-----------------------------------|
A------------------------------------|-----------------------------------|
e------------------------------------|-----------------------------------|

Riff 5 Riff 6
E------------------------------------|-----------------------------------|
B------------------------------------|-----------------------------------|
G-----121212---121212---121212-------|--14b15--12-------12---------------|
D---14-------14-------14-------------|------------15-15------------------|
A------------------------------------|-----------------------------------|
e------------------------------------|-----------------------------------|

Riff 7 Riff 8
E------------------------------------|-----------------------------------|
B------------------------------------|-----------------------------------|
G---------12-------------------------|-14b15-14b15-14b15-12--14b15r14-12-|
D---14/15----------------------------|---------------------14------------|
A------------------------------------|-----------------------------------|
e------------------------------------|-----------------------------------|

The other riffs are easy and very similar to the others, so find them
yourself!


INTRO:
* repeat twice
E------------------------------------------------------------------------|
B----------15b16r15-15b16r15-------b16r15-13-----------------------------|
G------12--------------------15p12-----------16-14\12-14b15r14-12--------|
D-13/14--14--------------------------------------------------------------|
A------------------------------------------------------------------------|
e------------------------------------------------------------------------|



1§ SOLO:

E------------------------------------------------------------------------|
B------------------------------------------------------------------------|
G-----121212---121212---121212-----12-14b15r14-14b15r14-12---12-14b15r14-|
D---14-------14-------14---------14------------------------14------------|
A------------------------------------------------------------------------|
e------------------------------------------------------------------------|


E------------------------------------------------------------------------|
B------------------------------------------------------------------------|
G-12--12-12-14b15r14-14b15r14-14b15r14-14b15r14-14b15r14-14b15r14-14b15r14
D---14-------------------------------------------------------------------|
A------------------------------------------------------------------------|
e------------------------------------------------------------------------|


E------------------------------------------------------------------------|
B-----------15b17r16--15b17r15--15b17r15---------------------------------|
G-12-14-12----------12--------12---------12-12-12-14b15--14-12---12------|
D-------------------------------------------------------------14---------|
A------------------------------------------------------------------------|
e------------------------------------------------------------------------|



E------------------------------------------------------------------------|
B-------------------15b17-15b17-15b17-15b17-15b17-15b17-b17r15-----------|
G-14b15r14-12-14-12--------------------------------------------12----12--|
D-----------------------------------------------------------------14-----|
A------------------------------------------------------------------------|
e------------------------------------------------------------------------|



E------------------------------------------------------------------------|
B------------------------------------------------------------------------|
G-14b15r14--12-14b15r14--12-14b15r14--12---------------------------------|
D------------------------------------------------------------------------|
A------------------------------------------------------------------------|
e------------------------------------------------------------------------|



2§SOLO repeat 35 times!
E---------------------------------------*--------------------------------|
B---------------------------------------8----15b17r16----b16r15--13------|
G----121212---121212---121212----1212--12-------------12------------15-13|
D-14--------14-------14-------14-----------------------------------------|
A------------------------------------------------------------------------|
e------------------------------------------------------------------------|



E------------------------------------------------------------------------|
B------------------------------------------------------------------------|
G-12-14b15r14-12-14b15r14-12---------------------------------------------|
D------------------------------------------------------------------------|
A------------------------------------------------------------------------|
e------------------------------------------------------------------------|




ENDING SOLO:

E------------------------------------------------------------------------|
B------------------------------------------------------------------------|
G---121212---121212---12-14b15-14b15-14b15r14---12-14b15-14b15r14-12--12-|
D-14-------14-------14------------------------14--------------------14---|
A------------------------------------------------------------------------|
e------------------------------------------------------------------------|


E------------------------------------------------------------------------|
B-------------------------------------------------15b17r16----15b17r16---|
G-14b15-14b15-14b15-14b15-14b15-14b15r14-12----12----------12----------12|
D-------------------------------------------14---------------------------|
A------------------------------------------------------------------------|
e------------------------------------------------------------------------|


Important: The song above is NOT stored on the Chordie server. The original song is hosted at www.xguitar.com. Chordie works as a search engine and provides on-the-fly formatting. Chordie does not index songs against artists/composers will. To remove this song please click here.

This song is displayed as text-only. Transposing and tuning is only available for chordpro-songs.

Login - add to songbook

Rating click stars to rate

Layout
Accuracy

SHARE PAGE  




You need to log in to post comments