Guitar Tabs, Chords and Lyrics


Cold    Crossfade



Crossfade: Cold correct version
Tabbed: Numberone_marine@yahoo.com
Tabbers notes: I've looked and looked for the correct tab, never found it, as many others
did I took it upon my self to make a correct tab to do this song justice, I do not have
the correct amount of strumming patterns but the Chords are lined up almost perfectly
with the lyrics so you guys will know when to switch. I'm workin on the rest of the
Crossfade album. Sorry about the fast part of the solo, but the beginning of the solo
and the rest of the song is correct. Laidher, Quinton
Tuning: Drop D
Verse1:
  Looking back at me I see that I never really got it right
   (Random palm muting during the verse)
e|------------------------------------------------------------------|
B|------------------------------------------------------------------|
G|------------------------------------------------------------------|
D|-0--0--0--0--0--0--0--0--0--0--0--0--0--0--0--0--0--10~~----------|
A|-0--0--0--0--0--0--0--0--0--0--0--0--0--0--0--0--0--8-~~----------|
D|-0--0--0--0--0--0--0--0--0--0--0--0--0--0--0--0--0--8-~~----------|

  I never stopped to think of you!
e|--------------------------------------------------------------|
B|--------------------------------------------------------------|
G|--------------------------------------------------------------|
D|-------------------10-----------------------------------------|
A|-------------------7------------------------------------------|
D|-------------------7------------------------------------------|

  I'm alway wrapped up in things I cannot win!
e|--------------------------------------------------------------|
B|--------------------------------------------------------------|
G|--------------------------------------------------------------|
D|-0--0--0--0--0--0--0--0--0--0--0-10--10--10------10-----------|
A|-0--0--0--0--0--0--0--0--0--0--0-8---8---8-------7------------|
D|-0--0--0--0--0--0--0--0--0--0--0-8---8---8-------7------------|

  You are the antidote that gets me by
e|--------------------------------------------------------------|
B|--------------------------------------------------------------|
G|--------------------------------------------------------------|
D|-0--0--0--0--0--0--0--0--0--0--------10-----------------------|
A|-0--0--0--0--0--0--0--0--0--0--------8------------------------|
D|-0--0--0--0--0--0--0--0--0--0--------8------------------------|

  Something strong like a drug that gets me
e|--------------------------------------------------------------|
B|--------------------------------------------------------------|
G|--------------------------------------------------------------|
D|-10--10--10--10--10--10--10--10--10----10--10-----------------|
A|-8---8---8---8---8---8---8---8---8-----7---7------------------|
D|-8---8---8---8---8---8---8---8---8-----7---7------------------|

    Hiiiiiiiiiigggggggghhhhhhhhhhhhhhhhhhhhhhh!!!
e|--------------------------------------------------------------|
B|--------------------------------------------------------------|
G|--------------------------------------------------------------|
D|-0-0-0-0-0-0-0--10-10-10-10-10-10-10---10---------------------|
A|-0-0-0-0-0-0-0--8--8--8--8--8--8--8----7----------------------|
D|-0-0-0-0-0-0-0--8--8--8--8--8--8--8----7----------------------|
                PM....................)
Chorus1:
  What I really meant to say, is I'm sorry for the way, I am
e|--------------------------------------------------------------|
B|--------------------------------------------------------------|
G|-----------------------7--7--7-----5--5--5--5-----------------|
D|--------10--10--10-----7--7--7-----5--5--5--5---------------10|
A|--------8---8---8------5--5--5-----3--3--3--3---------------8-|
D|--------8---8---8-------------------------------------------8-|

  I never meant to be so cold, never meant to be so cold
e|--------------------------------------------------------------|
B|--------------------------------------------------------------|
G|---------7--7--7-------5---5---5---5---5---5---5--------------|
D|-10--10--7--7--7-------5---5---5---5---5---5---5--------------|
A|-8---8---5--5--5-------3---3---3---3---3---3---3--------------|
D|-8---8--------------------------------------------------------|

  What I really meant to say, is I'm sorry for the way, I am
e|--------------------------------------------------------------|
B|--------------------------------------------------------------|
G|-----------------------7--7--7-----5--5--5--5-----------------|
D|--------10--10--10-----7--7--7-----5--5--5--5---------------10|
A|--------8---8---8------5--5--5-----3--3--3--3---------------8-|
D|--------8---8---8-------------------------------------------8-|

  I never meant to be so cold, never meant to be so! !
e|--------------------------------------------------------------|
B|--------------------------------------------------------------|
G|---------7--7--7-------5---5---5---5---5---5---5--------------|
D|-10--10--7--7--7-------5---5---5---5---5---5---5--------------|
A|-8---8---5--5--5-------3---3---3---3---3---3---3--------------|
D|-8---8--------------------------------------------------------|

Verse2:
   Cold!!!  To you, And I'm sorry about all the lies
   (Random palm muting during the verse)
e|------------------------------------------------------------|
B|------------------------------------------------------------|
G|------------------------------------------------------------|
D|-0--0--0--0--0--0--0--0--0--0--0--0--0--0--0--10~~----------|
A|-0--0--0--0--0--0--0--0--0--0--0--0--0--0--0--8-~~----------|
D|-0--0--0--0--0--0--0--0--0--0--0--0--0--0--0--8-~~----------|

  Maybe in a different light
e|-------------------------------------------------------|
B|-------------------------------------------------------|
G|-------------------------------------------------------|
D|------------10-------------0---------------------------|
A|------------7--------------0---------------------------|
D|------------7--------------0---------------------------|

  You could see me stand on my own again, cuz now I can see
e|------------------------------------------------------------|
B|------------------------------------------------------------|
G|------------------------------------------------------------|
D|-0--0--0--0--0--0--0--0--0--0-10--10--10--------------10----|
A|-0--0--0--0--0--0--0--0--0--0-8---8---8---------------7-----|
D|-0--0--0--0--0--0--0--0--0--0-8---8---8---------------7-----|

  You were the antidote that gets me by
e|--------------------------------------------------------------|
B|--------------------------------------------------------------|
G|--------------------------------------------------------------|
D|-0--0--0--0--0--0--0--0--0--0--------10-----------------------|
A|-0--0--0--0--0--0--0--0--0--0--------8------------------------|
D|-0--0--0--0--0--0--0--0--0--0--------8------------------------|

  Something strong like a drug that got me
e|--------------------------------------------------------------|
B|--------------------------------------------------------------|
G|--------------------------------------------------------------|
D|-10--10--10--10--10--10--10--10--10----10--10-----------------|
A|-8---8---8---8---8---8---8---8---8-----7---7------------------|
D|-8---8---8---8---8---8---8---8---8-----7---7------------------|

  Hiiiiiiiiiigggggggghhhhhhhhhhhhhhhhhhhhhhh!!!
e|--------------------------------------------------------------|
B|--------------------------------------------------------------|
G|--------------------------------------------------------------|
D|-0-0-0-0-0-0-0--10-10-10-10-10-10-10---10---------------------|
A|-0-0-0-0-0-0-0--8--8--8--8--8--8--8----7----------------------|
D|-0-0-0-0-0-0-0--8--8--8--8--8--8--8----7----------------------|
                PM....................)

Chorus2:
 What I really meant to say, is I'm sorry for the way, I am
e|--------------------------------------------------------------|
B|--------------------------------------------------------------|
G|-----------------------7--7--7-----5--5--5--5-----------------|
D|--------10--10--10-----7--7--7-----5--5--5--5---------------10|
A|--------8---8---8------5--5--5-----3--3--3--3---------------8-|
D|--------8---8---8-------------------------------------------8-|

  I never meant to be so cold, never meant to be so cold
e|--------------------------------------------------------------|
B|--------------------------------------------------------------|
G|---------7--7--7-------5---5---5---5---5---5---5--------------|
D|-10--10--7--7--7-------5---5---5---5---5---5---5--------------|
A|-8---8---5--5--5-------3---3---3---3---3---3---3--------------|
D|-8---8--------------------------------------------------------|

  What I really meant to say, is I'm sorry for the way, I am
e|--------------------------------------------------------------|
B|--------------------------------------------------------------|
G|-----------------------7--7--7-----5--5--5--5-----------------|
D|--------10--10--10-----7--7--7-----5--5--5--5---------------10|
A|--------8---8---8------5--5--5-----3--3--3--3---------------8-|
D|--------8---8---8-------------------------------------------8-|

  I never meant to be so cold, never meant to be so cold.
e|--------------------------------------------------------------|
B|--------------------------------------------------------------|
G|---------7--7--7-------5---5---5---5---5---5---5--------------|
D|-10--10--7--7--7-------5---5---5---5---5---5---5--------------|
A|-8---8---5--5--5-------3---3---3---3---3---3---3--------------|
D|-8---8--------------------------------------------------------|

interlude (acoustic simulator)
                                     Never meant to be
e|--------------------------------------------------------------|
B|--------------------------------------------------------------|
G|------------------7--7--7--7---5--5--5--5--5------------------|
D|--/-10-10-10-10---7--7--7--7---5--5--5--5--5-------3-/--------|
A|--/-8--8--8--8----5--5--5--5---3--3--3--3--3-------3-/--------|
D|--/-8--8--8--8-------------------------------------3-/--------|

     soooooooooooo   cold
e|--------------------------------------------------------------|
B|--------------------------------------------------------------|
G|-----------7--7----5--5--5--5--5------------------------------|
D|-/-10--10--7--7----5--5--5--5--5------------------------------|
A|-/-8---8---5--5----3--3--3--3--3------------------------------|
D|-/-8---8------------------------------------------------------|

Solo: with wah pedal
e|--------------------------------------------------------------|
B|--------------------------------------------------------------|
G|-------12/14\12-10-12-10--------12/14\12-10-12-9--9br---------|
D|--12/14--------------------12/14------------------------12----|
A|--------------------------------------------------------------|
D|--------------------------------------------------------------|
fast part of solo is played somewhere in this(c chord)area
e|--------------------------------------------------------\-----|
B|---------------------------------------------------------\----|
G|----------------------------------------------------------\5--|
D|--10p9\8\7-8-7-8-7\5------10p9\8\7-8-7-8-7-----------------5--|
A|-----------------------------------------------------------3--|
D|--------------------------------------------------------------|

Chords behind solo:play through 2 times for solo
e|--------------------------------------------------------------|
B|--------------------------------------------------------------|
G|-------------7--7----5--5-------------------------------------|
D|---10--10----7--7----5--5-------------------------------------|
A|---8---8-----5--5----3--3-------------------------------------|
D|---8---8------------------------------------------------------|

  I never really wanted you to see  the screwed up side of me that keep
e|----------------------------------------------------------------------|
B|----------------------------------------------------------------------|
G|--------7---7---7---7---7----5----5----5----5----5----5----5----5----5|
D|-10-10--7---7---7---7---7----5----5----5----5----5----5----5----5----5|
A|-8--8---5---5---5---5---5----3----3----3----3----3----3----3----3----3|
D|-8--8-----------------------------------------------------------------|

  locked inside of me so deep it always seems to get to me
e|------------------------------------------------------------|
B|------------------------------------------------------------|
G|--------7---7---7---7--5----5----5----5----5----5----5----5-|
D|-10-10--7---7---7---7--5----5----5----5----5----5----5----5-|
A|-8--8---5---5---5---5--3----3----3----3----3----3----3----3-|
D|-8--8-------------------------------------------------------|

 I never really wanted you to go, so many things you should have known
e|----------------------------------------------------------------------|
B|----------------------------------------------------------------------|
G|--------7---7---7---7---7----5----5----5----5----5----5----5----5----5|
D|-10-10--7---7---7---7---7----5----5----5----5----5----5----5----5----5|
A|-8--8---5---5---5---5---5----3----3----3----3----3----3----3----3----3|
D|-8--8-----------------------------------------------------------------|

  I guess for me theres just no hope, I never meant to be so cold
e|----------------------------------------------------------------------|
B|----------------------------------------------------------------------|
G|------------7---7---7---7-----5----5----5----5----5----5----5----5---5|
D|-10-10--10--7---7---7---7-----5----5----5----5----5----5----5----5---5|
A|-8--8---8---5---5---5---5-----3----3----3----3----3----3----3----3---3|
D|-8--8---8-------------------------------------------------------------|



Chorus3:
  What I really meant to say, is I'm sorry for the way, I am
e|--------------------------------------------------------------|
B|--------------------------------------------------------------|
G|-----------------------7--7--7-----5--5--5--5-----------------|
D|--------10--10--10-----7--7--7-----5--5--5--5---------------10|
A|--------8---8---8------5--5--5-----3--3--3--3---------------8-|
D|--------8---8---8-------------------------------------------8-|

  I never meant to be so cold, never meant to be so cold
e|--------------------------------------------------------------|
B|--------------------------------------------------------------|
G|---------7--7--7-------5---5---5---5---5---5---5--------------|
D|-10--10--7--7--7-------5---5---5---5---5---5---5--------------|
A|-8---8---5--5--5-------3---3---3---3---3---3---3--------------|
D|-8---8--------------------------------------------------------|

  What I really meant to say, is I'm sorry for the way, I am
e|--------------------------------------------------------------|
B|--------------------------------------------------------------|
G|-----------------------7--7--7-----5--5--5--5-----------------|
D|--------10--10--10-----7--7--7-----5--5--5--5---------------10|
A|--------8---8---8------5--5--5-----3--3--3--3---------------8-|
D|--------8---8---8-------------------------------------------8-|

  I never meant to be so cold, never meant to be so cold.
e|---------------------------------------------------------------|
B|---------------------------------------------------------------|
G|---------7--7--7-------5---5---5---5---5---5---5---------------|
D|-10--10--7--7--7-------5---5---5---5---5---5---5----0----------|
A|-8---8---5--5--5-------3---3---3---3---3---3---3----0----------|
D|-8---8----------------------------------------------0----------|


Important: The song above is NOT stored on the Chordie server. The original song is hosted at www.xguitar.com. Chordie works as a search engine and provides on-the-fly formatting. Chordie does not index songs against artists/composers will. To remove this song please click here.

This song is displayed as text-only. Transposing and tuning is only available for chordpro-songs.

Login - add to songbook

Rating click stars to rate

Layout
Accuracy

SHARE PAGE  




You need to log in to post comments