Chordie logo


Unknown    Crossfade



----------------------------------------------------------------------------
			     THE UNKNOWN - Crossfade
----------------------------------------------------------------------------
Tabbed by: Justin
Email: black_phantom120@hotmail.com

Tuning: Drop D

Authors Note: This is the very first tab I've done, I was looking for tab to this song,
and I only saw one version, and it wasn't right to me.  So I decided to write my own
tab.  Please feel free to E-mail me, with comments, questions, and feedback, on how to
make this tab or future work I do better and more helpful to you.  Thanks a lot.


  (Clean)
  (intro)X7 figure out strumming on your own
e|-------------------------------------------------------------------------|
B|-------------------------------------------------------------------------|
G|-------------------------------------------------------------------------|
D|-10--10-10-10-10--10--9-9-9-9--------------------------------------------|
A|-10--10-10-10-10--10--9-9-9-9--------------------------------------------|
D|-10--10-10-10-10--10--9-9-9-9--------------------------------------------|

  X4
e|-------------------------------------------------------------------------|
B|-------------------------------------------------------------------------|
G|-------------------------------------------------------------------------|
D|-------10-------10------------9-----9------------------------------------|
A|----10-------10-------10----9-----9-----9--------------------------------|
D|-10-------10-------10-----9-----9-----9----------------------------------|

  X4                       |                | can't tell if right
e|-------------------------------------------------------------------------|
B|-------------------------------------------------------------------------|
G|-------------12----------------------------------------------------------|
D|-------10-------10------------9-----9------------------------------------|
A|----10----10-------10-------9-----9-----9--------------------------------|
D|-10-------------------10--9-----9-----9----------------------------------|

  (Distortion)
e|-------------------------------------------------------------------------|
B|-------------------------------------------------------------------------|
G|-7---9/11-----11-11-11-11--11\7--9/11--11h12p9-11-11-11\7----------------|
D|-------------------------------------------------------------------------|
A|-------------------------------------------------------------------------|
D|-------------------------------------------------------------------------|
						
  (On first 11, bend up slightly)                             *~~~Fade away
e|-------------------------------------------------------------------------|
B|-------------------------------------------------------------------------|
G|-9/11-----11-11-11-11--11\7--9/11--11h12p9-11-11-11/7-----9/11-----------|
D|-------------------------------------------------------------------------|
A|-------------------------------------------------------------------------|
D|-------------------------------------------------------------------------|

  X4 (Clean)
e|-------------------------------------------------------------------------|
B|-------------------------------------------------------------------------|
G|-------------------------------------------------------------------------|
D|-------10-------10--------9-9--9-----------------------------------------|
A|----10-------10-------10--9-9--9-----------------------------------------|
D|-10-------10-------10-----9-9--9-----------------------------------------|

  X2
e|-------------------------------------------------------------------------|
B|-------------------------------------------------------------------------|
G|-------------12----------------------------------------------------------|
D|-------10-------10--------9-9--9-----------------------------------------|
A|----10----10-------10-----9-9--9-----------------------------------------|
D|-10-------------------10--9-9--9-----------------------------------------|

  X2 (Fades away)
e|-------------------------------------------------------------------------|
B|-------------------------------------------------------------------------|
G|-------------------------------------------------------------------------|
D|-10--10-10-10-10--10--9-9-9----------------------------------------------|
A|-10--10-10-10-10--10--9-9-9----------------------------------------------|
D|-10--10-10-10-10--10--9-9-9----------------------------------------------|


| /  slide up
| \  slide down
| h  hammer-on
| p  pull-off
| ~  vibrato
| +  harmonic
| x  Mute note


Important: The song above is NOT stored on the Chordie server. The original song is hosted at www.xguitar.com. Chordie works as a search engine and provides on-the-fly formatting. Chordie does not index songs against artists/composers will. To remove this song please click here.

This song is displayed as text-only. Transposing and tuning is only available for chordpro-songs.

Login - add to songbook

Rating click stars to rate

Layout
Accuracy

SHARE PAGE  




You need to log in to post comments