Guitar Tabs, Chords and Lyrics


East Indian Devil (Kali's Song)    Danzig



EAST INDIAN DEVIL (KALI'S SONG) - two steps down
===============================
transcription: Ryq

Notes:  The section marked "C#" has no riff, just a basic tonality
        centered on C#; the "8x" refers to the number of measures this
        section lasts.

   verse riff:
C |---------------------------------|
G |---------------------------------|
Eb|-6-------6-----6---6---6-7-------|
Bb|-6-------6-----6---6---6-7-------|
F |-4---4-4-4---4-4---4---4-5-------|
C |---------------------------------|
       pm->    pm


   bridge riff:
C |---------------------------------|---------------------------------|
G |----------------------11----10---|-----------------------8---------|
Eb|-7/9-----9---7/9------10-----9---|-7/9-----9---7/9-------7---------|
Bb|-7/9-----9---7/9-------8-----7---|-7/9-----9---7/9-------5---------|
F |-5/7-7-7-7---5/7---7-7-8-----7---|-5/7-7-7-7---5/7---7-7-5---------|
C +---------------------------------|---------------------------------+
  |     pm>           pm>                 pm>           pm>           |
  |                                                                   |
Eb+---------------------------------|---------------------------------+
Bb|-----------------------8-----7---|-----------------------5---------|
F |-5h7-7-7-7---5h7---7-7-----------|-5h7-7-7-7---5h7---7-7-----------|
C |---------------------------------|---------------------------------|

-songflow-
 vocal effects...
 main riff  (4x)
 main riff  (8x)
 main riff  (4x) w/ effects
 main riff  (8x)
 bridge     (2x)
 main riff  (8x)
 C#         (8x) w/ kick drum, vocals, and effects
 drums...
 main riff (12x)
 bridge     (4x)
 bridge     (2x)
 D
 vocal effects w/ fade out...



Important: The song above is NOT stored on the Chordie server. The original song is hosted at www.xguitar.com. Chordie works as a search engine and provides on-the-fly formatting. Chordie does not index songs against artists'/composers' will. To remove this song please click here.

This song is displayed as text-only. Transposing and tuning is only available for chordpro-songs.

Login - add to songbook

Rating click stars to rate

Layout
Accuracy

SHARE PAGE  




You need to log in to post comments