Guitar Tabs, Chords and Lyrics


Five Finger Crawl    Danzig



FIVE FINGER CRAWL - 'Dropped D' tuning, half-step down
=================
transcription: Kristoefur, Jeff, Ryq

Notes:  For this song, Jeff tuned "half-step down, the low E a full step
        below that."  To use this tuning, tune the guitar one half step
        down from standard, then tune the 6th string down an additional
        whole step, resulting in (Db Ab Db Gb Bb Eb); the lowest string
        is commonly called "C#."  The "intro/chorus 1 riff" is actually 
        played 12 frets higher than what is transcribed.

   intro/chorus 1 riff:
Eb|-0-----3-3-3-3-2-----------------|-0-----3-3-3-3-2---5-------------|
Bb|-0-----3-3-3-3-2-----------------|-0-----3-3-3-3-2---5-------------|
Gb|-0-----3-3-3-3-2-----------------|-0-----3-3-3-3-2---5-------------|
Db|-0-----3-3-3-3-2-----------------|-0-----3-3-3-3-2---5-------------|
Ab|-0-----3-3-3-3-2-----------------|-0-----3-3-3-3-2---5-------------|
Db+-0-----3-3-3-3-2-----------------|-0-----3-3-3-3-2---5-------------+
  |                                                                   |
  |                                                                   |
Gb+---------------------------------|---------------------------------+
Db|---------------------------------|---------------------------------|
Ab|---------------------------------|---------------------------------|
Db|-0-----3-3-3-3-2-----------------|-0-----3-3-3-3-2---5-------------|


   verse riff:
Eb|---------------------------------|---------------------------------|
Bb|---------------------------------|---------------------------------|
Gb|---------------------------------|---------------------------------|
Db|-0---0-0-0---0-0-0-0-0-0-0---1---|-0---0-0-0---0-0-0-0-0-0-0---1---|
Ab|-0---0-0-0---0-0-0-0-0-0-0---1---|-0---0-0-0---0-0-0-0-0-0-0---1---|
Db+-0---0-0-0---0-0-0-0-0-0-0---1---|-0---0-0-0---0-0-0-0-0-0-0---1---+
  | pm  pm-->   pm---------->         pm  pm-->   pm---------->       |
  |                                                                   |
Gb+---------------------------------|---------------------------------+
Db|---------------------------------|---------------------------------|
Ab|---------------------------------|---------------------------------|
Db|-0---0-0-0---0-0-0-0-0-0-0---1---|-0---0-0-0---0-0-0-0-0-0-0---1---|


   chorus 2 riff:
Eb|---------------------------------|---------------------------------|
Bb|---------------------------------|---------------------------------|
Gb|---------------------------------|---------------------------------|
Db|-0---0---0-------0---0---0-------|-0---0---0-------0---0---0---1---|
Ab|-0---0---0-------0---0---0-------|-0---0---0-------0---0---0---1---|
Db+-0---0---0-------0---0---0-------|-0---0---0-------0---0---0---1---+
  | pm------>       pm------>         pm------>       pm------>       |
  |                                                                   |
Gb+---------------------------------|---------------------------------+
Db|---------------------------------|---------------------------------|
Ab|---------------------------------|---------------------------------|
Db|-0---0---0-------0---0---0-------|-0---0---0-------0---0---0---1---|


-songflow-
 effects...
 intro riff    (2x)
 verse riff    (8x)
 chorus 1 riff (2x)
 chorus 2 riff (4x)
 chorus 1 riff (2x)
 verse riff    (8x)
 chorus 1 riff (2x)
 chorus 2 riff (4x)
 chorus 1 riff (6x)
 D




Important: The song above is NOT stored on the Chordie server. The original song is hosted at www.xguitar.com. Chordie works as a search engine and provides on-the-fly formatting. Chordie does not index songs against artists/composers will. To remove this song please click here.

This song is displayed as text-only. Transposing and tuning is only available for chordpro-songs.

Login - add to songbook

Rating click stars to rate

Layout
Accuracy

SHARE PAGE  




You need to log in to post comments