Chordie logo

End of Time    Danzig



End of Time by Danzig
From the first Danzig CD
Tabbed by Diabolus70

Tune to E

Intro riff / chorus riff:
E---------------------------------|---------------------------------
B-----0-----0---------1-----1-----|-----3-----3---------1-----1-----
G---------------------------------|---------------------------------
D---2-----2-----2---2-----2-----2-|---2-----2-----2---2-----2-----2-
A-2-----2-----2---3-----3-----3---|-2-----2-----2---3-----3-----3---
E---------------------------------|---------------------------------

Riff 2 played 2x                              end w/ this
E--------------------------------------------|--------------
B--------------------------------------------|--------------
G--------------------------------------------|--------------
D--------------------5----------7----------5-|-5-5-5-5-5-5-5
A---------2--3-3-3-3-3--5-5-5-5-5--3-3-3-3-3-|-3-3-3-3-3-3-3
E-0-0-0-0-0----------------------------------|--------------
PM* * * *    * * * *    * * * *    * * * *     * * * * * * *

Riff 3 played 2x         Verse Riff played 2x
E-----------------------|----------------------------------------------
B-----------------------|----------------------------------------------
G-----------------------|----------------------------------------------
D-----------------------|----------------------------------------------
A-2---5---5---3---7---77|-2---2---2---5---5---5---3---3---3---7---7---7
E-0-0-3-0-3-0-1-0-5-0-55|-0-0-0-0-0-0-3-0-3-0-3-0-1-0-1-0-1-0-5-0-5-0-5



Important: The song above is NOT stored on the Chordie server. The original song is hosted at www.xguitar.com. Chordie works as a search engine and provides on-the-fly formatting. Chordie does not index songs against artists/composers will. To remove this song please click here.

This song is displayed as text-only. Transposing and tuning is only available for chordpro-songs.

Login - add to songbook

Rating click stars to rate

Layout
Accuracy

SHARE PAGE  



You need to log in to post comments