Guitar Tabs, Chords and Lyrics


Naked Witch    Danzig



NAKED WITCH - one step down
===========
transcription: Ryq

  riff A:
D|---------------------------------|---------------------------------|
A|-4p2-0h2-0-----------------------|-4p2-0h2-0-----------------------|
F|---------------------------------|---------------------------------|
C|---------------------------------|---------------------------------|
G|---------------2---2---2-5---7---|---------------2---2---2-5-------|
D|---------------0---0---0-3---5---|---------------0---0---0-3-------|
                 pm------>                         pm------>

  riff B:
D|---------------------------------|---------------------------------|
A|---------------------------------|---------------------------------|
F|---------------------------------|---------------------------------|
C|---------AH----------------------|---------AH----------------------|
G|-2-2-----7-----2---2---2-5---7---|-2-2---2-7-----2---2---2-5-------|
D|-0-0---0-------0---0---0-3---5---|-0-0---0-------0---0---0-3-------|
   pm---->       pm------>           pm---->       pm------>

  riff C:
D|---------------------------------|
A|---------------------------------|
F|---------------------------------|
C|-2-------------------------------|
G|-2---------------------------5---|
D|-0---------------------------5---|

  riff D:
D|---------------------------------|---------------------------------|
A|---------------------------------|---------------------------------|
F|---------------------------------|---------------------------------|
C|-2-----------9---8---5---7---5---|-7-------5-------2-------3-------|
G|-2-----------9---8---5---7---5---|-7-------5-------2-------3-------|
D|-0-----------7---6---3---5---3---|-5-------3-------0-------1-------|

-songflow-
(coming soon)


Important: The song above is NOT stored on the Chordie server. The original song is hosted at www.xguitar.com. Chordie works as a search engine and provides on-the-fly formatting. Chordie does not index songs against artists'/composers' will. To remove this song please click here.

This song is displayed as text-only. Transposing and tuning is only available for chordpro-songs.

Login - add to songbook

Rating click stars to rate

Layout
Accuracy

SHARE PAGE  




You need to log in to post comments