Chordie logo


Pain in the World    Danzig



PAIN IN THE WORLD
=================
transcription: Tom Mallon, Ryq

  riff 1:                             riff 1a:
E|---------------------------------| |---------------------------------|
B|---------------------------------| |-----8---7---5-------------------|
G|---------------------------------| |-5-------------------------------|
D|-----------------------------ah--| |---------------------------------|
A|-----7---6-------------------8---| |----------------/3---7---6---8---|
E+-5-----------6-3/5---8---7-------+ |---------------------------------|
 |                                 |
 |                                 |
G+---------------------------------+
D|---------------------------------|
A|-----7---6-------------------8---|
E|-5-----------6-3/5---8---7-------|


  riff 2:              riff 2a:
E|------------------| |-------------------------|
B|- guitar plays ---| |-------------------------|
G|- fills at spots -| |-------9-9-9-8-8-8-------|
D|- detailed below -| |-7-7-7-9-9-9-8-8-8-8-8-8-|
A|------------------| |-7-7-7-7-7-7-6-6-6-8-8-8-|
E+------------------+ +-5-5-5-------------6-6-6-+
 |                  | | pm throughout           |
 |                  | |                         |
G+------------------+ +-------------------------+
D|------------------| |-------------------------|
A|-----7---6--------| |-------7-7-7-6-6-6-------|
E|-5-----------6-3/-| |-5-5-5-------------6-6-3/|


  outro:
E|-----------------------------------------------|
B|-----------------------------------------------|
G|-------------------5---------------------7-\-5-|
D|-------------------5---------------------7-\-5-|
A|-0---0-0---0-0---0-3---0---0-0---0-0---0-5-\-3-|
E+-----------------------------------------------+
 | pm-------------->     pm-------------->       |
 |                                               |
G+-----------------------------------------------+
D|-----------------------------------------------|
A|-------------------3---------------------5---3-|
E|-5---5-5---5-5---5-----5---5-5---5-5---5-------|


-songflow-
 snare!
 riff 1        (2x)
 riffs 1 + 1a  (2x)
 riff 2       (11x) w/guitar fills on repeats 8 and 10
 riff 2a
 riff 1        (2x)
 riffs 1 + 1a  (2x)
 riff 2        (7x) w/guitar fill on fourth repeat
 riff 2a
 riff 1        (2x)
 riffs 1 + 1a  (2x)
 riffs 1 + 1a  (4x) w/solo
 riff 2        (4x) bass w/synth
 riff 2        (7x) w/guitar fills on repeats 4 and 6
 riff 2a
 riffs 1 + 1a  (4x)
 outro         (2x) guitar only
 outro        (14x) w/solo
 A                  w/feedback


Important: The song above is NOT stored on the Chordie server. The original song is hosted at www.xguitar.com. Chordie works as a search engine and provides on-the-fly formatting. Chordie does not index songs against artists/composers will. To remove this song please click here.

This song is displayed as text-only. Transposing and tuning is only available for chordpro-songs.

Login - add to songbook

Rating click stars to rate

Layout
Accuracy

SHARE PAGE  




You need to log in to post comments