Chordie logo

It's Coming Down    Danzig







                              IT'S COMING DOWN
                                 by Danzig
                            tabbed by Tom Mallon

Tune down 1/2 step

RIFF 1 (Intro)
E -----------------------------------------------------------------------
B -----------------------------------------------------------------------
G -----------------3---2-------------------------------------------------
D --2----5----2----3---2-------------------------------------------------
A --2----5----2----1---0-------------------------------------------------
E --0----3----0----------------------------------------------------------

RIFF 2 (Verse)
        PM--------------           PM---------
E -----------------------------------------------------------------------
B -----------------------------------------------------------------------
G -----------------3---2------------------3--2---------------------------
D --2----5----2----3---2---2---2----5--2--3--2---------------------------
A --2----5----2----1---0---2---2----5--2--1--0---------------------------
E --0----3----0------------0---0----3--0---------------------------------

RIFF 3 (Chorus)

E -----------------------------------------------------------------------
B -----------------------------------------------------------------------
G ---------------------/--8----------------------------------------------
D --2-----8--\\----2----/--8----------------------------------------------
A --2-----8--\\----2----/--6----------------------------------------------


Important: The song above is NOT stored on the Chordie server. The original song is hosted at www.xguitar.com. Chordie works as a search engine and provides on-the-fly formatting. Chordie does not index songs against artists/composers will. To remove this song please click here.

This song is displayed as text-only. Transposing and tuning is only available for chordpro-songs.

Login - add to songbook

Rating click stars to rate

Layout
Accuracy

SHARE PAGE  



You need to log in to post comments