Guitar Tabs, Chords and Lyrics


The Endless Feed    Dark Tranquility



Artist: Dark Tranquillity
Album: Character
Song: The Endless Feed
Tabbed by Gary Glaser (swfett@hotmail.com)

Tuning is drop D and down 1 and 1/2 steps. (B)



Intro:
C# |---------------------------------------------------|
G# |---------------------------------------------------|
E  |---------------------------------------------------|
B  |7---------------7---------/(scrape)----/(scrape)---|
F# |5---------------5--------/------------/------------|
B  |0---------------0-------/------------/-------------|

C# |------------------------------------|      |------------------------------------|
G# |------------------------------------| (2x) |------------------------------------|
E  |------------------------------------| then |------------------------------------|
B  |---5-7---5-7-101010---5-7-----5-757-| ---> |---5-7---5-7-101010---5-7-57--57757-|
F# |---3-5---3-5-8-8-8----3-5-----3-535-|      |---3-5---3-5-8-8-8----3-5-35--35535-|
B  |000-0-000-0-0------000-0-00000-0----|      |000-0-000-0-0------000-0-0--00------|
    ... . ... . .      ... . ..... .            ... . ... . .      ... . .  ..

Verse:
Guitar 1
C# |----------------------------------------------------------------------|
G# |----------------------------------------------------------------------|
E  |------------------------------------------------------------------3---|
B  |---------------------------5-757----------------------------5-757-3---|
F# |00--00--00--00--00--00-----3-535-00--00--00--00--00--00-----3-535-1---|
B  |00--00--00--00--00--00--000-0----00--00--00--00--00--00--000-0--------|
    ..  ..  ..  ..  ..  ..  ... .    ..  ..  ..  ..  ..  ..  ... .

C# |------------------------------------------|
G# |------------------------------------------|
E  |-----------------3------------------------|
B  |-----------5-757-3----------5-7-57--57757-|
F# |00--00-----3-535-1----------3-5-35--35535-|
B  |00--00--000-0------------000-0-0--00------|
    ..  ..  ... .            ... . .  ..
Guitar 2
C# |----------------------------------------------------------------------|
G# |------------------------------------------------------------------6---|
E  |------------------------------------------------------------------5---|
B  |------------------------------------------------------------------3---|
F# |00--00--00--088800--00-----3-535-00--00--00--088800--00-----3-535-----|
B  |00--000000--0---00--0000000-0----00--000000--0---00--0000000-0--------|
    ..  ......  .   ..  ....... .    ..  ......  .   ..  ....... .

C# |----------------------------------------------|
G# |-----------------6----------------------------|
E  |-----------------5--/(scrape)-----------------|
B  |-----------------3-/--------------------------|
F# |00--00-----3-535----------------3-5-35--35535-|
B  |00--0000000-0----------------000-0-0--00------|
    ..  ....... .                ... . .  ..

Chorus:
Guitar 1
C# |------------------------------------------------------------------------|
G# |------------------------------------------------------------------------|
E  |------------------------------------------------------------------------|(2x)
B  |5-5------5-5------5-5------5-5------0-0------0-0------0-0------0-0------|
F# |5-5------5-5------5-5------5-5------0-0------0-0------0-0------0-0------|
B  |5-5-5555-5-5-5555-5-5-5555-5-5-5555-0-0-0000-0-0-0000-0-0-0000-0-0-0000-|
        ....     ....     ....     ....     ....     ....     ....     ....

C# |-----------------------------------------------------------------|
G# |-----------------------------------------------------------------|
E  |----------------3333333333333333----------------3333333322222222-|
B  |1111111111111111333333333333333311111111111111113333333322222222-|
F# |1111111111111111111111111111111111111111111111111111111100000000-|
B  |1111111111111111----------------1111111111111111-----------------|

Guitar 2
C# |-----------------------------------------------------------------|
G# |-----------------------------------------------------------------|
E  |3-3-----3-3-----3-3-----3-3-----2-2-----2-2-----2-2-----2-2------| (2x)
B  |5-5-----5-5-----5-5-----5-5-----3-3-----3-3-----3-3-----3-3------|
F# |-----------------------------------------------------------------|
B  |----5555----5555----5555----5555----0000----0000----0000----0000-|
        ....    ....    ....    ....    ....    ....    ....    ....

C# |-----------------------------------------------------------------|
G# |-----------------------------------------------------------------|
E  |------------------------------------------------7777777755555555-|
B  |------------5555----------------------------55558888888877777777-|
F# |666655556666----8888886655556688666666556666---------------------|
B  |-----------------------------------------------------------------|

Bridge:
Guitar 1
C# |-------------------------------------------------------------------------|
G# |-------------------------------------------------------------------------|
E  |-------------------5-----------5---------------------------5-----7-------|
B  |5----------5-------5-----------5-----------1-------1-------5-----5-------|
F# |5----------5-------3-----------3-----------1-------1-------3-----5-------|
B  |5----------5-------------------------------1-------1---------------------|

Guitar 2
C# |3----------3-------8-----------8---------------1---------1-8-----10------|
G# |3--4-3h4p3-3---3-4-8-----------8-----------4-----4-4---4---8-----10------|
E  |0----------0-------5--8-7h8p7--5--8-7h8p7--3-------3-------5-----7-------|
B  |-------------------------------------------1-------1-----------------8-7-|
F# |-------------------------------------------------------------------------|
B  |-------------------------------------------------------------------------|

2nd Verse:
Guitar 1
C# |----------------------------------------------------------------------|
G# |----------------------------------------------------------------------|
E  |------------------------------------------------------------------3---|
B  |---------------------------5-757----------------------------5-757-3---|
F# |00--00--00--00--00--00-----3-535-00--00--00--00--00--00-----3-535-1---|
B  |00--00--00--00--00--00--000-0----00--00--00--00--00--00--000-0--------|
    ..  ..  ..  ..  ..  ..  ... .    ..  ..  ..  ..  ..  ..  ... .

C# |------------------------------------------------------------------------------|
G# |------------------------------------------------------------------------------|
E  |--------------------------------------------------------------------3---------|
B  |-------------3------------------------------------------------------3---------|
F# |---3-5---3-5---3---3-5---3-5-888---3-5----3--5--888---3-5-35--35535-1---------|
B  |000-0-000-0-0-0-888-8-888-8-8---888-8-8810-10-10---000-0-0--00----------------|
    ... . ... . . . ... . ... . .   ... . ...  .  .    ... . .  ..
Guitar 2
C# |------------------------------------------------------------------------------|
G# |------------------------------------------------------------------6-----------|
E  |------------------------------------------------------------------5--/(scrape)|
B  |-------------*--------------------------------*-------------------3-/---------|
F# |00--00--00--03--00--00-----3-535-00--00--00--03--00--00-----3-535-------------|
B  |00--000000--0---00--0000000-0----00--000000--0---00--0000000-0----------------|
    ..  ......  .   ..  ....... .    ..  ......  .   ..  ....... .

C# |------------------------------------------------------------------------------|
G# |--------------------------------------------------------------------6---------|
E  |--------------------------------------------------------------------5---------|
B  |-------------3------------------------------------------------------3---------|
F# |---3-5---3-5---3---3-5---3-5-888---3-5----3--5--888---3-5-35--35535-----------|
B  |000-0-000-0-0-0-888-8-888-8-8---888-8-8810-10-10---000-0-0--00----------------|
    ... . ... . . . ... . ... . .   ... . ...  .  .    ... . .  ..

Chorus
Bridge

Interlude:
C# |-----------------------------|
G# |---------666-----------------|
E  |---------555-----------------|
B  |---------333-----------5-757-|
F# |00----------00---------3-535-|
B  |00----------00-------00-0----|
    ..          ..       .. .

1st Verse (with pinch harmonics from 2nd verse)
Chorus


Important: The song above is NOT stored on the Chordie server. The original song is hosted at www.xguitar.com. Chordie works as a search engine and provides on-the-fly formatting. Chordie does not index songs against artists'/composers' will. To remove this song please click here.

This song is displayed as text-only. Transposing and tuning is only available for chordpro-songs.

Login - add to songbook

Rating click stars to rate

Layout
Accuracy

SHARE PAGE  




You need to log in to post comments