Guitar Tabs, Chords and Lyrics


The New Build    Dark Tranquility



Artist: Dark Tranquillity
Album: Character
Song: The New Build
Tabbed by Gary Glaser (swfett@hotmail.com)

Tuning is drop D and down 1/2 step. (C#)



Intro:
Guitar 1:
D# |---------------------------------------------------------------------------------------------------------|
A# |---------------------------------------------------------------------------------------------------------|
F# |7-----------------------7-----------5-----------3--------------------------3-----------------------------|
C# |7-----------------------7-----------5-----------3--------------------------3-----------3-----------------|
G# |5-----------------------5-----------3-----------1--------------------------1-----------3-----------------|
C# |---------------------------------------------------------------------------------------3-----------------|

Guitar 2:
D# |---------------------------------------------------------------------------------------------------------|
A# |---------------------------------------------------------------------------------------------------------|
F# |---------------------------------------------------------------------------------------------------------|
C# |---777888777---777575------777888777---777777------7778887771010108888888888881010108888881010108887h87--|
G# |555---------888------777555---------888------777888----------------------------------------------------8-|
C# |---------------------------------------------------------------------------------------------------------|

Bridge:
Guitar 1:
D# |-------------------------------------------------|
A# |-------------------------------------------------|
F# |-------------------------------------------------| (2x)
C# |-------------------------------------------------|
G# |------------333555-------------------------------|
C# |000000000333------5558887777773335558887773335---|

Guitar 2:
D# |-------------------------------------------------|
A# |-------------------------------------------------|
F# |-------------------------------------------------|
C# |-------------------------------------------------|
G# |------------333555---------------------------*---|
C# |000000000333------5558887777773335558887773335---|

D# |-------------------------------------------------|
A# |-------------------------------------------------|
F# |-------------------------------------------------|
C# |-------------------------------------------------|
G# |------------777888555888777777888777555777333555-|
C# |000000000333-------------------------------------|

Verse A:
D# |---------------------------------------------------------------------------------------------|
A# |---------------------------------------------------------------------------------------------|
F# |---------------------------------------------------------------------------------------------|
C# |-------------------57-------------3-----8--7---------------------57------------------------2-|
G# |8--7-------------8---8--7---------3-----8--7--8--7-------------8---8--7-----------5-12-3-5-2-|
C# |-00-00-000-000-00-0---00-00-000-0-3---0-8--7---88-88-888-888-88-8---77-77-777-777-5-12-3-5-2-|
     .. .. ... ... .. .   .. .. ... .     .        .. .. ... ... .. .   .. .. ... ... .  . . .

Fill:
Guitar 1:
D# |----------------------------------------------------------|
A# |----------------------------------------------------------|
F# |----------------------------------------------------------|
C# |-------------------------0----------------------------0---|
G# |-------------------------0----------------------------0---|
C# |0-0-0000---0000---0--0-0-0---0-0-0000---0000---0--0-0-0---|
    . . ....   ....   .  . .     . . ....   ....   .  . .
D# |----------------------------------------------------------|
A# |----------------------------------------------------------|
F# |----------------------------------------------------------|
C# |-------------------------3----------------------------1---|
G# |-------------------------3----------------------------1---|
C# |3-3-3333---3333---3--3-3-3---1-1-1111---1111---1--1-1-1---|
    . . ....   ....   .  . .     . . ....   ....   .  . .

Guitar 2 (omit first time):
D# |10-------|
A# |--14--14-|
F# |----15---| (8x)
C# |---------| (let ring)
G# |---------|
C# |---------|

Verse B:
D# |-----------------------------------------------------------------------------|
A# |-----------------------------------------------------------------------------|
F# |----------------------------------------------------------------------*-*----|
C# |------------------578--7-------8-7---7-------------------578--7-------8-7----|
G# |8--7--------8-7-5------------------78----8--7------8-7-5---------5-7---------|
C# |-00-000-000--0-0-0---88-88-888--8-8-------00-00-000-0-0-0--------------------|
     .. ... ...  . . .   .. .. ...  . .       .. .. ... . . .

Chorus:
Guitar 1:
D# |---------------------------------------------------------------------------------------------------------|
A# |---------------------------------------------------------------------------------------------------------|
F# |7-----------------------7-----------5-----------3--------------------------3-----------------------------|
C# |7-----------------------7-----------5-----------3--------------------------3-----------3-----------------|
G# |5-----------------------5-----------3-----------1--------------------------1-----------3-----------------|
C# |---------------------------------------------------------------------------------------3-----------------|

D# |---------------------------------------------------------------------------------------------------------|
A# |---------------------------------------------------------------------------------------------------------|
F# |7-----------------------7-----------5-----------3--------------------------3-----------------------------|
C# |7-----------------------7-----------5-----------3--------------------------3-----------3-----------------|
G# |5-----------------------5-----------3-----------1--------------------------1-----------3-----------------|
C# |---------------------------------------------------------------------------------------3-----------------|

Guitar 2:
D# |------------------------------------------------------------------------------------------------------|
A# |------------------------------------------------------------------------------------------------------|
F# |------------------------------------------------------------------------------777---------------------|
C# |---777888777---777555------777888777---777777------777888777101010888888888888---8888881010108887h87--|
G# |555---------888------777555---------888------777888-------------------------------------------------8-|
C# |------------------------------------------------------------------------------------------------------|

D# |---------------------------------------------------------------------------------------------------------|
A# |---------------------------------------------------------------------------------------------------------|
F# |---------------------------------------------------------------------------------------------------------|
C# |---777888777---777575------777888777---777777------7778887771010108888888888881010108888881010108887h87--|
G# |555---------888------777555---------888------777888----------------------------------------------------8-|
C# |---------------------------------------------------------------------------------------------------------|

Bridge
Verse A/Fill/Verse B
Chorus

Interlude (part 1):
(both guitars)
D# |--------------------------------------------------------------------------------|
A# |--------------------------------------------------------------------------------|
F# |7-----------------------7-----------5-5---------3---------------2-----------5-5-|
C# |7-----------------------7-----------5-5---------3---------------2-----------5-5-|
G# |5-----------------------5-----------3-3---------1---------------0-----------3-3-|
C# |--------------------------------------------------------------------------------|

Guitar 1:
D# |--------------------------------------------------------------------------------|
A# |--------------------------------------------------------------------------------|
F# |7-----------------------7-----------5-5---------3---------------2-----------5-5-| (2x)
C# |7-----------------------7-----------5-5---------3---------------2-----------5-5-|
G# |5-----------------------5-----------3-3---------1---------------0-----------3-3-|
C# |--------------------------------------------------------------------------------|

Guitar 2:
D# |--------------------------------------------------|
A# |--------------------------------------------------|
F# |---------------------5-5---------0------------5-5-| (2x)
C# |7--5--7-8-7-5-7--5---5-5-3--2--3---3-2-0--2---5-5-|
G# |-55-55-5-5-5-5-55-55-3-3--11-11-1-1-1-1-11-11-3-3-|
C# |--------------------------------------------------|
     .. .. . . . . .. ..      .. .. . . . . .. ..

Interlude (part 2):
Guitar 1:
D# |---------------------------------------------------------------------------------------------|
A# |---------------------------------------------------------------------------------------------|
F# |---------------------------------------------------------------------------------------------| (2x)
C# |----------------------------------3-----8--7-----------------------------------------------2-|
G# |8--7-----------------8--7---------3-----8--7--8--7-----------------8--7-----------5-12-3-5-2-|
C# |-00-00-000-000--------00-00-000-0-3---0-8--7---88-88-888-888--------77-77-777-777-5-12-3-5-2-|
     .. .. ... ...        .. .. ... .     .        .. .. ... ...        .. .. ... ... .  . . .

Guitar 2:
D# |10--------------10-----------12--------13-12-------|
A# |----10---------------------------------------------|
F# |------10p9p7-10------------------------------------| (2x)
C# |---------------------------------------------------|
G# |---------------------------------------------------|
C# |---------------------------------------------------|

Fill 2:
D# |--------------------------------------------------------------------------------------|
A# |--------------------------------------------------------------------------------------|
F# |----------------------------------------------------------3-----5--2------------------|
C# |-------------------------0----------------------------0---3-----5--2--2-2-2-2h3p2-0-2-|
G# |-------------------------0----------------------------0---1-----3--0------------------|
C# |0-0-0000---0000---0--0-0-0---0-0-0000---0000---0--0-0-0-------------------------------|
    . . ....   ....   .  . .     . . ....   ....   .  . .

Interlude (part 3):
Guitar 1:
D# |--------------------------------------------|
A# |--------------------------------------------|
F# |--------------------------------------------|
C# |----------------------------2-2-2-2h3p2-0-2-|
G# |00--00--00----------------------------------|
C# |00--00--00----------------------------------|
    ..  ..  ..
D# |--------------------------------------------|
A# |--------------------------------------------|
F# |--------------------------------------------| (2x)
C# |----------------------------3-3-3-3h5p3-2-3-|
G# |00--00--00----------------------------------|
C# |00--00--00----------------------------------|
    ..  ..  ..
D# |--------------------------------------------|
A# |--------------------------------------------|
F# |--------------------------------------------|
C# |----------------------0-----3-3-3-3h5p3-2-3-|
G# |00--00--00--00--00--0-0---------------------|
C# |00--00--00--00--00--0-0---------------------|
    ..  ..  ..  ..  ..  .

Intro
Bridge

Verse C:
D# |--------------------------------------------------|
A# |------------------------------------------66655---|
F# |---------------------5-5---------0-----777-----55-| (2x)
C# |7--5--7-8-7-5-7--5---5-5-3--2--3---3-2------------|
G# |-55-55-5-5-5-5-55-55-3-3--11-11-1-1-1-1-----------|
C# |--------------------------------------------------|
     .. .. . . . . .. ..      .. .. . . . .

Fill/Verse B
Chorus

Outro:
D# |----------------|
A# |----------------|
F# |----------------|
C# |00--00--00------|
G# |00--00--00------|
C# |00--00--00------|


Important: The song above is NOT stored on the Chordie server. The original song is hosted at www.xguitar.com. Chordie works as a search engine and provides on-the-fly formatting. Chordie does not index songs against artists'/composers' will. To remove this song please click here.

This song is displayed as text-only. Transposing and tuning is only available for chordpro-songs.

Login - add to songbook

Rating click stars to rate

Layout
Accuracy

SHARE PAGE  




You need to log in to post comments