Guitar Tabs, Chords and Lyrics


Format C: For Cortex    Dark Tranquility



Band:  Dark Tranquillity
Album: Damage Done
Song:  Format C: for Cortex

Copyright (c) Century Media 2002

Version tab 1.0, created 18-6-2005

Transcribed By: Stefan "GorillaHuman" Hummelink
Email:          gorillahuman@gmail.com (feel free to email me if something is not correct,
                                         or you just want to send a comment)

.  - palm mute
*  - see comment

Tuning E A D G B e !!!

(Yes, I know that Dark Tranquillity isn't tuned in E, but I'm too lazy to retune
my guitar everytime when I come back from my band if I want to play metal)

Intro

e|---------------
B|---------------
G|---6-8-9-8-6---
D|-6-----------9-
A|---------------
E|---------------

0:05
e|-----------------------------
B|-----------------------------
G|---6-8-9-8-6-----------------
D|-6-----------9-7-------------
A|-----------------7-6-4-------
E|-----------------------7-5-4-


e|---------------
B|---------------
G|---6-8-9-8-6---
D|-6-----------9- 2x
A|---------------
E|---------------

e|-------------------------------
B|-------------------------------
G|---6-8-9-8-6-------------------
D|-6-----------9-7-----4-----4-6-
A|-----------------7-6---6-7-----
E|-------------------------------

e|---------------
B|---------------
G|---6-8-9-8-6---
D|-6-----------9-
A|---------------
E|---------------

e|-------------------------------
B|-------------------------------
G|---6-8-9-8-6-------------------
D|-6-----------9-7-----4-----4-6-
A|-----------------7-6---6-7-----
E|-------------------------------

Riff 1

0:30
e|--------------------------------
B|--------------------------------
G|--------------------------------
D|----------4-6-4-----------4-----
A|-77----77-------7-6---6-7---7-6-
E|----77--------------7-----------

Riff 2
e|--------------------------------
B|----------9---------------------
G|-9---9-11---11-9-8---8-9-11-9-8-
D|---9---------------9------------
A|--------------------------------
E|--------------------------------

Riff 3

e|--------------------
B|--------------------
G|--------------------
D|-..................-
A|-000700600400070604-
E|--------------------

Riff 3.5
e|------------------------------------
B|---------------------not-100%-sure--
G|--------------------.-.-.-.....-----
D|-..................-4--------4------
A|-000700600400070604---7-6-467-76-4*-
E|------------------------------------

* = same note as in next riff

Riff 4
0:50
e|--------------------------------
B|--------------------------------
G|--------------------------------
D|------------------------6-------
A|-*4-7-6-4-4-7-6-6-7-6-4---7-6-4-
E|--------------------------------

e|---------------
B|---------------
G|---------------
D|-------6-7-6---
A|-7-6-4-------4-
E|---------------

Riff 5
1:08
e|--------
B|-let----
G|-ring---
D|--------
A|-2---26-
E|-0---04-

Riff 3.5
1:14
e|------------------------------------
B|------------------------------------
G|--------------------.-.-.-.....-----
D|-..................-4--------4------
A|-000700600400070604---7-6-467-76-4*-
E|------------------------------------

Riff 4
e|--------------------------------
B|--------------------------------
G|--------------------------------
D|------------------------6-------
A|-*4-7-6-4-4-7-6-6-7-6-4---7-6-4-
E|--------------------------------

Riff 5
1:28
e|--------
B|--------
G|--------
D|--------
A|-777664-
E|-555442-

Instrumental
1:35
e|--------------------------------
B|--------------------------------
G|-..............................-
D|----------4-6-4-----------4-----
A|-77----77-------7-6---6-7---7-6-
E|----77--------------7-----------

e|--------------------------------
B|----------9---------------------
G|-9---9-11---11-9-8---8-9-11-9-8-
D|---9---------------9------------
A|--------------------------------
E|--------------------------------

Riff 4
1:45
e|-------------------------------
B|-------------------------------
G|-------------------------------
D|-----------------------6-------
A|-4-7-6-4-4-7-6-6-7-6-4---7-6-4-
E|-------------------------------

e|---------------
B|---------------
G|---------------
D|-------6-7-6---
A|-7-6-4-------4-
E|---------------

Riff 3
1:59
e|--------------------
B|--------------------
G|--------------------
D|-..................-
A|-000700600400070604-
E|--------------------

e|------------------------------------
B|------------------------------------
G|--------------------.-.-.-.....-----
D|-..................-4--------4------
A|-000700600400070604---7-6-467-76-4*-
E|------------------------------------

Riff 4
e|--------------------------------
B|--------------------------------
G|--------------------------------
D|------------------------6-------
A|-*4-7-6-4-4-7-6-6-7-6-4---7-6-4-
E|--------------------------------

Riff 5
2:19
e|--------
B|--------
G|--------
D|--------
A|-777664-
E|-555442-

2:24 keyboard + guitar

Riff 6 - "solo"
2:58
e|-----------------------------------
B|-----------------------------------
G|-9-999999-8-666-8-9-8-888888-6-----
D|-------------------------------999-
A|-----------------------------------
E|-----------------------------------

e|-------------------------------------
B|-------------------------------------
G|6-8-999999-8-666-8-9-66666-8888-9999-
D|-------------------------------------
A|-------------------------------------
E|-------------------------------------

e|------------------------------------------------------------------------------
B|-----------------------------101010-999--------1010-99------------------------
G|88888888-99999-11-9-8-999999------------888888---------666666-----------------
D|--------------------------------------------------------------9-7-6---------6-
A|--------------------------------------------------------------------7-6-7-9---
E|------------------------------------------------------------------------------

Riff 3
3:31
e|---------------------
B|---------------------
G|---------------------
D|-..................-- 2x
A|-000700600400070604--
E|---------------------

e|------------------------------------
B|------------------------------------
G|--------------------.-.-.-.....-----
D|-..................-4--------4------
A|-000700600400070604---7-6-467-76-4*-
E|------------------------------------

Riff 4
3:45
e|----------------------------------------------------------------
B|----------------------------------------------------------------
G|----------------------------------------------------------------
D|------------------------6--------------6-7-6---6--------6-------
A|-*4-7-6-4-4-7-6-6-7-6-4---7-6-4--7-6-4-------4---7-6-4----7-6-4-
E|----------------------------------------------------------------

Outro
3:58
e|--------------------------------
B|--------------------------------
G|-------------------(guitar 2)---
D|-7777-666---------7-6-4---------
A|-7777-666-44-2----------7-6-5-4-
E|-5555-444-22-0------------------

If something is not clear, or is false (this is my very first metaltab,
so that's highly possible), please email me at gorillahuman@gmail.com!

This is the first tab 'format C: for Cortex' tab on the internet.
I created it myself for a full 100%. Please report a rip if you find
this tab somewhere else if I didn't submitted it.



Important: The song above is NOT stored on the Chordie server. The original song is hosted at www.xguitar.com. Chordie works as a search engine and provides on-the-fly formatting. Chordie does not index songs against artists'/composers' will. To remove this song please click here.

This song is displayed as text-only. Transposing and tuning is only available for chordpro-songs.

Login - add to songbook

Rating click stars to rate

Layout
Accuracy

SHARE PAGE  




You need to log in to post comments