Guitar Tabs, Chords and Lyrics


Gallery    Dark Tranquility



Artist: Dark Tranquility
Track: The Gallery

Tune down to D#

Acoustic Intro:
|---------------------------------------------------------|
|-------12-------------12---------------------------------|
|-9h11~-----11-9----------9h11-------6-7-9-11-------------|
|-----------------12-------------7-9----------------------|
|---------------------------------------------------------|
|---------------------------------------------------------|

|---------------------------------------------------------|
|---------------12-12-------------------------------------|
|-------9-11-----------11---------------------------------|
|-9-12----------------------------------------------------|
|---------------------------------------------------------|
|---------------------------------------------------------|

Acoustic Intro: 2nd guitar
|---------------------------------------------------------|
|----3---------3----------2---------2-----3--------3------|
|------4----------4---------4---------------4--------4----|
|-4---------4----------4---------4------4-------4---------|
|---------------------------------------------------------|
|---------------------------------------------------------|
							(2x)
Riff B (chords)
|---------------------------------------------------------|
|---------------------------7-5---------------------------|
|------------------6-------------6---7-9------------------|
|-7\4---4-7-4-6--6---6--7---------------------------------|
|-5\2---2-5-2-4---------5---------------------------------|
|---------------------------------------------------------|

|---------------------------------------------------------|
|-------------------------7-5-----------------------------|
|----------------6-------------6---7-9--------------------|
|-4---4-7-4-6--6---6--7-----------------------------------|
|-2---2-5-2-4---------5-----------------------------------|
|---------------------------------------------------------|

Riff C
|---------------------------------------------------------|
|-----------------5h7-7--9-7-5-5--7p5---------------------|
|-7p6-6--6h7p6-6------------------------------------------|
|---------------------------------------------------------|
|---------------------------------------------------------|
|---------------------------------------------------------|

|---------------------------------------------------------|
|-----------------5h7-7--9-7-5-5--7p5---------------------|
|-7p6-6--6h7p6-6----------------------7p6-6--6h7h9--------|
|---------------------------------------------------------|
|---------------------------------------------------------|
|---------------------------------------------------------|

Riff D (acoustic stuff 1st guitar in this version missing)
Riff D (acoustic stuff 2nd guitar)
|-----------------9--10-9-7-9-10-12-9--7-9-10-9-----------|
|----------10-12------------------------------------------|
|-10h12p11------------------------------------------------|
|---------------------------------------------------------|
|---------------------------------------------------------|
|---------------------------------------------------------|

Riff E (chords)(almost correct, will be correct in next version)
|---------------------------------------------------------|
|---------------------------------------------------------|
|-6-8-9-8--8-8-8--9-8-6-8--8-8----------------------------|
|-4-6-7-6--6-6-6--7-6-4-6--6-6--6-4-2-1-2-4---------------|
|---------------------------------------------------------|
|---------------------------------------------------------|

Riff F
|---------------------------------------------------------|
|---------------------------------------------------------|
|---------------------------------------------------------|
|-4/6--7-6--4-4---4/6--7-5--4-4---4/6--7-6----------------|
|-2/4--5-4--2-2---2/4--5-3--2-2---2/4--5-4----------------|
|---------------------------------------------------------|
            x x             x x
Riff E
|---------------------------------------------------------|
|---------------------------------------------------------|
|-6-8-9-8--8-8-8--9-8-6-8--8-8----------------------------|
|-4-6-7-6--6-6-6--7-6-4-6--6-6--6-4-2-1-2-4---------------|
|---------------------------------------------------------|
|---------------------------------------------------------|

Riff F
|---------------------------------------------------------|
|---------------------------------------------------------|
|---------------------------------------------------------|
|-4/6--7-6--4-4---4/6--7-5--4-4---4/6--7-6----------------|
|-2/4--5-4--2-2---2/4--5-3--2-2---2/4--5-4----------------|
|---------------------------------------------------------|
            x x             x x
Riff E
|---------------------------------------------------------|
|---------------------------------------------------------|
|-6-8-9-8--8-8-8--9-8-6-8--8-8----------------------------|
|-4-6-7-6--6-6-6--7-6-4-6--6-6--6-4-2-1-2-4---------------|
|---------------------------------------------------------|
|---------------------------------------------------------|

Riff G (when female vocals began to sing)
|---------------------------------------------------------|
|---------------------------------------------------------|
|----------------------------------------2h4h6-4-6p4------|
|-/7-7p6h7--4h6--7/9\7-6---7-7p6h7--4h6-------------------|
|---------------------------------------------------------|
|---------------------------------------------------------|

|---------------------------------------------------------|
|---------------------------------------------------------|
|----------------------------------------2h4h6-4-6p4------|
|-/7-7p6h7--4h6--7/9\7-6---7-7p6h7--4h6-------------------|
|---------------------------------------------------------|
|---------------------------------------------------------|

Riff H (still experimental in this version)
|---------------------------------------------------------|
|---------------------------------------------------------|
|-------2-------------2----------------6--6h---------6-6h-|
|-----4---4---------4---4---------6h7-------7----6h7-----7|
|---4-------4-----4-------4----4---------------4----------|
|-2-------------2-----------------------------------------|

|---------------------------------------------------------|
|---------------------------------------------------------|
|-------2-------------2----------------6--6h---------6-6h-|
|-----4---4---------4---4---------6h7-------7----6h7-----7|
|---4-------4-----4-------4----4---------------4----------|
|-2-------------2-----------------------------------------|

Riff I (sounds perfect to me) (small solo inside riff H)
|---------------------------------------------------------|
|---------------------------------------------------------|
|-----------4h6----------4h6--4---------------------------|
|-4-7-4--7h------6---7-6---------7p6----------------------|
|---------------------------------------------------------|
|---------------------------------------------------------|

Riff B (chords)
|---------------------------------------------------------|
|---------------------------7-5---------------------------|
|------------------6-------------6---7-9------------------|
|-7\4---4-7-4-6--6---6--7---------------------------------|
|-5\2---2-5-2-4---------5---------------------------------|
|---------------------------------------------------------|

|---------------------------------------------------------|
|-------------------------7-5-----------------------------|
|----------------6-------------6---7-9--------------------|
|-4---4-7-4-6--6---6--7-----------------------------------|
|-2---2-5-2-4---------5-----------------------------------|
|---------------------------------------------------------|

Riff I
|---------------------------------------------------------|
|---------------------------------------------------------|
|-----------4h6----------4h6--4---------------------------|
|-4-7-4--7h------6---7-6---------7p6----------------------|
|---------------------------------------------------------|
|---------------------------------------------------------|



Important: The song above is NOT stored on the Chordie server. The original song is hosted at www.xguitar.com. Chordie works as a search engine and provides on-the-fly formatting. Chordie does not index songs against artists'/composers' will. To remove this song please click here.

This song is displayed as text-only. Transposing and tuning is only available for chordpro-songs.

Login - add to songbook

Rating click stars to rate

Layout
Accuracy

SHARE PAGE  




You need to log in to post comments