Guitar Tabs, Chords and Lyrics


Tidal Tantrum    Dark Tranquility



Band: Dark Tranquillity
Album: The Minds I
Song: Tidal Tantrum
Tabbed by: Morgan Berglund (shadowsouls@hotmail.com)


This is just the intro for Tidal Tantrum (without the electric guitar).
I´ll just give you an idea how it sounds.
Just try to make your own version with this one as a guide.

I´m looking for Fatal Embrace Tabs for my homepage.
Please E-mail me if you´ve got any.
If you haven´t heared them,
listen to the soundclips on my page, or why not buy their album?

http://members.tripod.com/~fatal_embrace



Clean Guitar

|-------------0----------------0-----------------0--------|
|-------------------------------0-------------------------|
|-6---6---6----6---4---4---4-----6---7---7---7----7-------|
|--7---7---7----7---6---6---6---------9---9---9----9------|
|---9---9---9--------7---7---7---------9---9---9----------|
|---------------------------------------------------------|

CG
|---------0---------------------------------------|
|-------------------------------------------------|
|-6---6-----7-6-4--4------------------------------|
|--7---7---------7--------------------------------|
|---9---9-----------------------------------------|
|-------------------------------------------------|


Synthesizer

|-----------------------------------------------------------|
|-----------------------------------------------------------|
|---11---9---7---6------------------------------------------|
|-----------------------------------------------------------|
|-----------------------------------------------------------|
|-----------------------------------------------------------|

CG
|-------------0----------------0-----------------0-------|
|-------------------------------0------------------------|
|-6---6---6----6---4---4---4-----6---7---7---7----7------|
|--7---7---7----7---6---6---6---------9---9---9----9-----|
|---9---9---9--------7---7---7---------9---9---9---------|
|--------------------------------------------------------|

CG
|---------0-------------------------------------|
|------------------7----------------------------|
|-6---6-----7-6-7-9-----------------------------|
|--7---7----------------------------------------|
|---9---9---------------------------------------|
|-----------------------------------------------|

Then, the electric guitar starts to play, at the same time as this.....

CG
|---------------------------------------------------------|
|---------------------------------------------------------|
|---------------------------------------------------------|
|--7---7---7---7---6---6---6---6---7---7---7---7----------|
|---9---9---9---9---7---7---7---7---99--99--99--99--------|
|----9---9---9---9---9---9---9---9------------------------|

|-------------------------------------------|
|-------------------------------------------|
|-------------------------------------------|
|--6---6---6---6---2---2---2---2------------|
|---7---7---7---7---4---4---4---4-----------|


Important: The song above is NOT stored on the Chordie server. The original song is hosted at www.xguitar.com. Chordie works as a search engine and provides on-the-fly formatting. Chordie does not index songs against artists'/composers' will. To remove this song please click here.

This song is displayed as text-only. Transposing and tuning is only available for chordpro-songs.

Login - add to songbook

Rating click stars to rate

Layout
Accuracy

SHARE PAGE  




You need to log in to post comments