Chordie logo

Hands Down    Dashboard Confessional



Hands Down- Dashboard Confessional
Tabbed by Alex McManus (aemon58@hotmail.com)

=Down Stroke
   > < > < > < > < > < > < > <   >   > < > < > < > < > < > < > <
e|-------------------------------------------------------------------------|
B|-------------------------------------------------------------------------|
D|--1---1-1-1-1-1-1-1-1-1-1-1-1-1-1----------------------------------------|
G|--2---2-2-2-2-2-2-2-2-2-2-2-2-2-2---2---2-2-2-2-2-2-2-2-2-2-2-2-2-2------|
A|--2---2-2-2-2-2-2-2-2-2-2-2-2-2-2---4---4-4-4-4-4-4-4-4-4-4-4-4-4-4------|
E|-------------------------------------------------------------------------|
        x x x x x x x x x x x x x x       x x x x x x x x x x x x x x
           Breath in...                Breath in.....

    >   > < > < > < > < > < > < > <   >   > < > < > <   > < > < > < > <
e|-------------------------------------------------------------------------|
B|-------------------------------------------------------------------------|
D|-------------------------------------------------------------------------|
G|--1---2-2-2-2-2-2-2-2-2-2-2-2-2-2---4---4-4-4-4-4-4---7-7-7-7-6-6-6-6----|
A|--0---0-0-0-0-0-0-0-0-0-0-0-0-0-0---2---2-2-2-2-2-2---5-5-5-5-5-5-5-5----|
E|------------------------------------------------------5-5-5-5-5-5-5-5----|
        x x x x x x x x x x x x x x       x x x x x x
    Deep. This air...                 blessed you       share with

    >   > < > < > < > < > < > < > <   >   > < > < > < > < > < > < > <
e|-------------------------------------------------------------------------|
B|-------------------------------------------------------------------------|
D|--1---1-1-1-1-1-1-1-1-1-1-1-1-1-1----------------------------------------|
G|--2---2-2-2-2-2-2-2-2-2-2-2-2-2-2---2---2-2-2-2-2-2-2-2-2-2-2-2-2-2------|
A|--2---2-2-2-2-2-2-2-2-2-2-2-2-2-2---4---4-4-4-4-4-4-4-4-4-4-4-4-4-4------|
E|-------------------------------------------------------------------------|
        x x x x x x x x x x x x x x       x x x x x x x x x x x x x x
    me.  This night....               wild, so calm..


    >   > < > < > < > < > < > < > <   >   > < > < > <   > < > < > < > <
e|-------------------------------------------------------------------------|
B|-------------------------------------------------------------------------|
D|-------------------------------------------------------------------------|
G|--1---2-2-2-2-2-2-2-2-2-2-2-2-2-2---4---4-4-4-4-4-4---7-7-7-7-6-6-6-6----|
A|--0---0-0-0-0-0-0-0-0-0-0-0-0-0-0---2---2-2-2-2-2-2---5-5-5-5-5-5-5-5----|
E|------------------------------------------------------5-5-5-5-5-5-5-5----|
        x x x x x x x x x x x x x x       x x x x x x
    dull. These hearts...             rush from         self con-
    >   > < > < > < > < > < > < > <   >   > < > < > < > < > < > < > <
e|-------------------------------------------------------------------------|
B|-------------------------------------------------------------------------|
D|--1---1-1-1-1-1-1-1-1-1-1-1-1-1-1----------------------------------------|
G|--2---2-2-2-2-2-2-2-2-2-2-2-2-2-2---2---2-2-2-2-2-2-2-2-2-2-2-2-2-2------|
A|--2---2-2-2-2-2-2-2-2-2-2-2-2-2-2---4---4-4-4-4-4-4-4-4-4-4-4-4-4-4------|
E|-------------------------------------------------------------------------|
        x x x x x x x x x x x x x x       x x x x x x x x x x x x x x
    -trol. Your legs...		      smooth as..

    >   > < > < > < > < > < > < > <   >
e|-------------------------------------------------------------------------|
B|-------------------------------------------------------------------------|
D|-------------------------------------------------------------------------|
G|--1---2-2-2-2-2-2-2-2-2-2-2-2-2-2---4------------------------------------|
A|--0---0-0-0-0-0-0-0-0-0-0-0-0-0-0---2------------------------------------|
E|-------------------------------------------------------------------------|
        x x x x x x x x x x x x x x
    mine. We're doing                 Fine. We're doing nothing at

Chorus
       > <  > < > > < > < >     >  > < > < > > < >
e|-------------------------------------------------------------------------|
B|------------------------------4--4-4-4-4-4-4-4-4-------------------------|
D|-----1-1--1-1-1-1-1-1-1-1-----4--4-4-4-4-4-4-4-4-------------------------|
G|-----2-2--2-2-2-2-2-2-2-2-----6--6-6-6-6-6-6-6-6-------------------------|
A|-----2-2--2-2-2-2-2-2-2-2-----6--6-6-6-6-6-6-6-6-------------------------|
E|--0---------------------------4--4-4-4-4-4-4-4-4-------------------------|
    all. My hopes...            kill me...


      >  > < > < > > < >       >  > < > <      > < > < > < > <
e|----0--0-0-0-0-0-0-0-0---------------------------------------------------|
B|----2--2-2-2-2-2-2-2-2-------4--4-4-4-4----------------------------------|
D|----1--1-1-1-1-1-1-1-1-------4--4-4-4-4----------------------------------|
G|----2--2-2-2-2-2-2-2-2-------6--6-6-6-6------7-7-7-7-6-6-6-6-------------|
A|----0--0-0-0-0-0-0-0-0-------6--6-6-6-6------4-4-4-4-4-4-4-4-------------|
E|-----------------------------4--4-4-4-4------5-5-5-5-5-5-5-5-------------|
      kill me...               happy...

       > <  > < > > < > < >     >  > < > < > > < >
e|-------------------------------------------------------------------------|
B|------------------------------4--4-4-4-4-4-4-4-4-------------------------|
D|-----1-1--1-1-1-1-1-1-1-1-----4--4-4-4-4-4-4-4-4-------------------------|
G|-----2-2--2-2-2-2-2-2-2-2-----6--6-6-6-6-6-6-6-6-------------------------|
A|-----2-2--2-2-2-2-2-2-2-2-----6--6-6-6-6-6-6-6-6-------------------------|
E|--0---------------------------4--4-4-4-4-4-4-4-4-------------------------|
       My heart...              burst...

      >  > < > < > > < >       >  > < > <      > < > < > < > <
e|----0--0-0-0-0-0-0-0-0---------------------------------------------------|
B|----2--2-2-2-2-2-2-2-2-------4--4-4-4-4----------------------------------|
D|----1--1-1-1-1-1-1-1-1-------4--4-4-4-4----------------------------------|
G|----2--2-2-2-2-2-2-2-2-------6--6-6-6-6------7-7-7-7-6-6-6-6-------------|
A|----0--0-0-0-0-0-0-0-0-------6--6-6-6-6------4-4-4-4-4-4-4-4-------------|
E|-----------------------------4--4-4-4-4------5-5-5-5-5-5-5-5-------------|
      bury...                  jewlery      whichever you pre-

Verse

    >   > < > < > < > < > < > < > <   >   > < > < > < > < > < > < > <
e|-------------------------------------------------------------------------|
B|-------------------------------------------------------------------------|
D|--1---1-1-1-1-1-1-1-1-1-1-1-1-1-1----------------------------------------|
G|--2---2-2-2-2-2-2-2-2-2-2-2-2-2-2---2---2-2-2-2-2-2-2-2-2-2-2-2-2-2------|
A|--2---2-2-2-2-2-2-2-2-2-2-2-2-2-2---4---4-4-4-4-4-4-4-4-4-4-4-4-4-4------|
E|-------------------------------------------------------------------------|
        x x x x x x x x x x x x x x       x x x x x x x x x x x x x x
    -fer. The words..                 busted...                    en-

    >   > < > < > < > < > < > < > <   >   > < > < > <   > < > < > < > <
e|-------------------------------------------------------------------------|
B|-------------------------------------------------------------------------|
D|-------------------------------------------------------------------------|
G|--1---2-2-2-2-2-2-2-2-2-2-2-2-2-2---4---4-4-4-4-4-4---7-7-7-7-6-6-6-6----|
A|--0---0-0-0-0-0-0-0-0-0-0-0-0-0-0---2---2-2-2-2-2-2---5-5-5-5-5-5-5-5----|
E|------------------------------------------------------5-5-5-5-5-5-5-5----|
        x x x x x x x x x x x x x x       x x x x x x
    -twined...                undis   covered

    >   > < > < > < > < > < > < > <   >   > < > < > < > < > < > < > <

e|-------------------------------------------------------------------------|
B|-------------------------------------------------------------------------|
D|--1---1-1-1-1-1-1-1-1-1-1-1-1-1-1----------------------------------------|
G|--2---2-2-2-2-2-2-2-2-2-2-2-2-2-2---2---2-2-2-2-2-2-2-2-2-2-2-2-2-2------|
A|--2---2-2-2-2-2-2-2-2-2-2-2-2-2-2---4---4-4-4-4-4-4-4-4-4-4-4-4-4-4------|
E|-------------------------------------------------------------------------|
        x x x x x x x x x x x x x x       x x x x x x x x x x x x x x
      Safe for...                     questions.

    >   > < > < > < > < > < > < > <   >   > < > < > <   > < > < > < > <
e|-------------------------------------------------------------------------|
B|-------------------------------------------------------------------------|
D|-------------------------------------------------------------------------|
G|--1---2-2-2-2-2-2-2-2-2-2-2-2-2-2---4---4-4-4-4-4-4---7-7-7-7-6-6-6-6----|
A|--0---0-0-0-0-0-0-0-0-0-0-0-0-0-0---2---2-2-2-2-2-2---5-5-5-5-5-5-5-5----|
E|------------------------------------------------------5-5-5-5-5-5-5-5----|
        x x x x x x x x x x x x x x       x x x x x x
    get some.                         so dumb.

    >   > < > < > < > < > < > < > <   >   > < > < > < > < > < > < > <
e|-------------------------------------------------------------------------|
B|-------------------------------------------------------------------------|
D|--1---1-1-1-1-1-1-1-1-1-1-1-1-1-1----------------------------------------|
G|--2---2-2-2-2-2-2-2-2-2-2-2-2-2-2---2---2-2-2-2-2-2-2-2-2-2-2-2-2-2------|
A|--2---2-2-2-2-2-2-2-2-2-2-2-2-2-2---4---4-4-4-4-4-4-4-4-4-4-4-4-4-4------|
E|-------------------------------------------------------------------------|
        x x x x x x x x x x x x x x       x x x x x x x x x x x x x x
       Stay quiet...                  near. Stay...

    >   > < > < > < > < > < > < > <   >
e|-------------------------------------------------------------------------|
B|-------------------------------------------------------------------------|
D|------------------------------------------------------7-7-7-7-6-6-6-6----|
G|--1---------------------------------4#----------------5-5-5-5-5-5-5-5----|
A|--0---------------------------------2#----------------5-5-5-5-5-5-5-5----|
E|-------------------------------------------------------------------------|
    hear.                          ...get some.

Chorus

       > <  > < > > < > < >     >  > < > < > > < >
e|-------------------------------------------------------------------------|
B|------------------------------4--4-4-4-4-4-4-4-4-------------------------|
D|-----1-1--1-1-1-1-1-1-1-1-----4--4-4-4-4-4-4-4-4-------------------------|
G|-----2-2--2-2-2-2-2-2-2-2-----6--6-6-6-6-6-6-6-6-------------------------|
A|-----2-2--2-2-2-2-2-2-2-2-----6--6-6-6-6-6-6-6-6-------------------------|
E|--0---------------------------4--4-4-4-4-4-4-4-4-------------------------|
    all. My hopes...            kill me...


      >  > < > < > > < >       >  > < > <      > < > < > < > <
e|----0--0-0-0-0-0-0-0-0---------------------------------------------------|
B|----2--2-2-2-2-2-2-2-2-------4--4-4-4-4----------------------------------|
D|----1--1-1-1-1-1-1-1-1-------4--4-4-4-4----------------------------------|
G|----2--2-2-2-2-2-2-2-2-------6--6-6-6-6------7-7-7-7-6-6-6-6-------------|
A|----0--0-0-0-0-0-0-0-0-------6--6-6-6-6------4-4-4-4-4-4-4-4-------------|
E|-----------------------------4--4-4-4-4------5-5-5-5-5-5-5-5-------------|
      kill me...               happy...

       > <  > < > > < > < >     >  > < > < > > < >
e|-------------------------------------------------------------------------|
B|------------------------------4--4-4-4-4-4-4-4-4-------------------------|
D|-----1-1--1-1-1-1-1-1-1-1-----4--4-4-4-4-4-4-4-4-------------------------|
G|-----2-2--2-2-2-2-2-2-2-2-----6--6-6-6-6-6-6-6-6-------------------------|
A|-----2-2--2-2-2-2-2-2-2-2-----6--6-6-6-6-6-6-6-6-------------------------|
E|--0---------------------------4--4-4-4-4-4-4-4-4-------------------------|
       My heart...              burst...

      >  > < > < > > < >       >  > < > <      > < > < > < > <
e|----0--0-0-0-0-0-0-0-0---------------------------------------------------|
B|----2--2-2-2-2-2-2-2-2-------4--4-4-4-4----------------------------------|
D|----1--1-1-1-1-1-1-1-1-------4--4-4-4-4----------------------------------|
G|----2--2-2-2-2-2-2-2-2-------6--6-6-6-6------7-7-7-7-6-6-6-6-------------|
A|----0--0-0-0-0-0-0-0-0-------6--6-6-6-6------4-4-4-4-4-4-4-4-------------|
E|-----------------------------4--4-4-4-4------5-5-5-5-5-5-5-5-------------|
      bury...                  jewlery      whichever you pre-


Outro/Bridge thing

     > > > > > > > > <     >  >  >  >  >  >  >  >  <
e|---0-0-0-0-0-0-0-0-0-----0--0--0--0--0--0--0--0--0-----------------------|
B|---0-0-0-0-0-0-0-0-0-----0--0--0--0--0--0--0--0--0-----------------------|
D|---9-9-9-9-9-9-9-9-9-----13-13-13-13-13-13-13-13-13----------------------|
G|---9-9-9-9-9-9-9-9-9-----13-13-13-13-13-13-13-13-13----------------------|
A|---7-7-7-7-7-7-7-7-7-----12-12-12-12-12-12-12-12-12----------------------|
E|-------------------------------------------------------------------------|
      Hands down..         best day...

     > > > > > > > > <     > > > > > > > > <       >   [End on]
e|---0-0-0-0-0-0-0-0-0-------------------------|---0-----------------------|
B|---9-9-9-9-9-9-9-9-9-----7-7-7-7-7-7-7-7-7---|---0-----------------------|
D|---9-9-9-9-9-9-9-9-9-----8-8-8-8-8-8-8-8-8---|---9-----------------------|
G|---9-9-9-9-9-9-9-9-9-----9-9-9-9-9-9-9-9-9---|---9-----------------------|
A|---7-7-7-7-7-7-7-7-7-----9-9-9-9-9-9-9-9-9---|---7-----------------------|
E|-------------------------7-7-7-7-7-7-7-7-7---|---------------------------|


Important: The song above is NOT stored on the Chordie server. The original song is hosted at www.xguitar.com. Chordie works as a search engine and provides on-the-fly formatting. Chordie does not index songs against artists/composers will. To remove this song please click here.

This song is displayed as text-only. Transposing and tuning is only available for chordpro-songs.

Login - add to songbook

Rating click stars to rate

Layout
Accuracy

SHARE PAGE  

You need to log in to post comments