Chordie logo

Rapid Hope Loss    Dashboard Confessional



Artist: Dashboard Confessional
Song: Rapid Hope Loss


Capo on fret 3, tab is in relation to the capo.

 Intro/Bridge
|--------------------------------------------------------------
|--------------------------------------------------------0-----
|-6---6---6---6---6---6---6---6---7---7---7---7--------4---6-4-
|-6---6---6---6---6---6---6---6---7---7---7---7------4---------
|---0---0---0---0---4---4---4---4---5---5---5---5--2-----------
|-------------------------------------------------------------- x1

 Verse
|------0-------------------------------------------------------
|------0-------------------------------------------------------
|-6----9-------------9--------------------------9-9-7----------
|-6----9--------9-11---11-9-7--9-7--9--9---9-7--x-x-x--7--7--7-
|-0----7------7---------------------x--x---x-5--7-7-5--x--x--x-
|----------7------------------------7--7-7-7-----------5--5--5- x1

|---------------------------------
|---------------------------------
|---------------------------------
|---------------------------------
|-7-7-7-7-7-7-7-7-9-9-9-9-9-9-9-9-
|-5-5-5-5-5-5-5-5-7-7-7-7-7-7-7-7- x1
 PM..............................

 Chorus
|---------------------------------------------------------------
|---------------------------------------------------------------
|-2--------4-----------6------------4-------------------------2-
|-2--------4-----------6------------4-------------------------2-
|-0--------2-----------4------------2-------------------------0-
|---------------------------------------------------------------
  So much, for all the promises you made, they served you well

|-------------------------------------------
|-------------------------------------------
|--------------4----------------6---------7-
|--------------4----------------6---------7-
|--------------2----------------4---------5-
|-----------------------------------------5-
And now you're gone and they're wasted on me

|-----------------------------------------------------------------
|-----------------------------------------------------------------
|-2--------4----------6----------------4------------------------2-
|-2--------4----------6----------------4------------------------2-
|-0--------2----------4----------------2------------------------0-
|-----------------------------------------------------------------
  So much, for your endearing sense of charm, it served you well

|-----------------------------------------
|-----------------------------------------
|------------4---------------6-------7----
|------------4---------------6-------7----
|------------2---------------4-------5----
|------------------------------------5----
And now it's gone and you're wasted on me

 Bridge
|--------------------------------------------------------------
|--------------------------------------------------------0-----
|-6---6---6---6---6---6---6---6---7---7---7---7--------4---6-4-
|-6---6---6---6---6---6---6---6---7---7---7---7------4---------
|---0---0---0---0---4---4---4---4---5---5---5---5--2-----------
|-------------------------------------------------------------- x1

 Verse (chords strummed more this time)
|------0-------------------------------------------------------
|------0-------------------------------------------------------
|-6----9-------------9--------------------------9-9-7----------
|-6----9--------9-11---11-9-7--9-7--9--9---9-7--x-x-x--7--7--7-
|-0----7------7---------------------x--x---x-5--7-7-5--x--x--x-
|----------7------------------------7--7-7-7-----------5--5--5- x1

|---------------------------------
|---------------------------------
|---------------------------------
|---------------------------------
|-7-7-7-7-7-7-7-7-9-9-9-9-9-9-9-9-
|-5-5-5-5-5-5-5-5-7-7-7-7-7-7-7-7- x1
 PM..............................

 Chorus
|---------------------------------------------------------------
|---------------------------------------------------------------
|-2--------4-----------6------------4-------------------------2-
|-2--------4-----------6------------4-------------------------2-
|-0--------2-----------4------------2-------------------------0-
|---------------------------------------------------------------
  So much, for all the promises you made, they served you well

|-------------------------------------------
|-------------------------------------------
|--------------4----------------6---------7-
|--------------4----------------6---------7-
|--------------2----------------4---------5-
|-----------------------------------------5-
And now you're gone and they're wasted on me


|-----------------------------------------------------------------
|-----------------------------------------------------------------
|-2--------4----------6----------------4------------------------2-
|-2--------4----------6----------------4------------------------2-
|-0--------2----------4----------------2------------------------0-
|-----------------------------------------------------------------
  So much, for your endearing sense of charm, it served you well

|-----------------------------------------
|-----------------------------------------
|------------4---------------6-------7----
|------------4---------------6-------7----
|------------2---------------4-------5----
|------------------------------------5----
And now it's gone and you're wasted on me

 Outro
|--------------------------------------------------------------
|--------------------------------------------------------0-----
|-6---6---6---6---6---6---6---6---7---7---7---7--------4---6-4-
|-6---6---6---6---6---6---6---6---7---7---7---7------4---------
|---0---0---0---0---4---4---4---4---5---5---5---5--2-----------
|-------------------------------------------------------------- x2

|-------------------------------------------------------------
|-------------------------------------------------------------
|-6---6-7-6---6-7-6---6-7-6---6-7--4--4--4--4-6-7--7--7-6-4-2-
|---7-------7-------7-------7---------------------------------
|-------------------------------------------------------------
|------------------------------------------------------------- x2 (second time is a variation)

|---------------------------------
|---------------------------------
|---------------------------------
|-6-6-6-6-6-6-6-6-7-7-7-7-4-4-4-4-
|-7-7-7-7-7-7-7-7-7-7-7-7-4-4-4-4-
|---------------------------------


Important: The song above is NOT stored on the Chordie server. The original song is hosted at www.xguitar.com. Chordie works as a search engine and provides on-the-fly formatting. Chordie does not index songs against artists/composers will. To remove this song please click here.

This song is displayed as text-only. Transposing and tuning is only available for chordpro-songs.

Login - add to songbook

Rating click stars to rate

Layout
Accuracy

SHARE PAGE  



You need to log in to post comments