eToCache5 = ""; ?> Oh by Dave Matthews - guitar chords, guitar tabs and lyrics - chordie
 B:-----------------------------------------------------------\

F#:---------2------------3-------------0---------------------- \
D:---------2------------0-------------0------0h2p0-----0----- \
A:-----2-------------4-------------0----------------2-------- /
E:-0------------4/5----------5------------------------------- /
B:------------------------------3---------3------------------/
B:----------------------------\
F#:-3--3-----------3--3----2-2- \
D:-2--2----4-4----2--2----2-2- \
A:-0--0----4-4----0--0----2-2- /
E:---------2-2------------0-0- /
B:----------------------------/
B:-----------
F#:-0------0--
D:-0------0--
A:-0------2--
E:-2------2--
B:-3------0--
B:------------------------------
F#:---------2------------3-------
D:---------2------------0-------
A:-----2-------------4----------
E:-0------------4/5----------5--
B:------------------------------
B:-----------------------------------------------------------------
F#:--------3-----------3-------------------3-----------3------------
D:--------0-----------0-------------------0-----------0------------
A:----4-----------4-----------4-------4-----------4-----------4----
E:-3-----------3-----------3-------2-----------2-----------2-------
B:-----------------------------------------------------------------
B:---------------------------------0--
F#:--------3-----------3------------3--
D:--------0-----------0------------2--
A:----4-----------4-----------4----0--
E:-0-----------0-----------0----------
B:------------------------------------

 EAD
 The world is blowing up
 EAD
 The world is caving in
 EAD
 The world has lost her way again
 EAD
 But you are here with me  
 EAD
 But you are here with me  
Makes it ok

 AF#mAE
 AF#m
 I hear you still talk to me
 AEAF#m
  As if you're sitting in that dusty chair
 AEA
Makes the hours easier to bare
 F#mA
I know despite the years alone
 EAF#m
I'll always listen to you sing your sweet song
 AE
  And if it's all the same to you
 D
 I love you oh so well
 Bm
 Like a kid loves candy and fresh snow
 D
 I love you oh so well
 Bm
 Enough to fill up heaven overflow and fill hell

Love you oh so well

 AF#mA
 And it's cold and darkness falls 
 EAF#m
It's as if you're in the next room so alive 
 AE
I could swear I hear you singing to me

 D
 I love you oh so well
 Bm
 Like a kid loves candy and fresh snow
 D
 I love you oh so well
 Bm
 Enough to fill up heaven overflow and fill hell

Love you oh so well

 EAD
 EAD
 The world is blowing up
 EAD
 The world is caving in
 EAD
 The world has lost her way again
 EAD
 But you are here with me  
 EAD
 But you are here with me  

Makes it ok
 AF#mAE
        Oh girl you are singing to me still
 D
 I Love You oh so well
 Bm
 Like a kid loves candy and fresh snow
 D
 I love you oh so well
Bm E - A - D ...
Enough to fill up heaven overflow and fill hell

E - A - D...

end with strum on A


A Bm D E F#m
variations - click chord images
Transpose chords:
Tuning:
Cool service:
View: Size:
A  A  A
Rating:
Layout:
  • Currently 2.3/5 Stars.
  • 1
  • 2
  • 3
  • 4
  • 5
 
Accuracy:
  • Currently 3/5 Stars.
  • 1
  • 2
  • 3
  • 4
  • 5
 
click stars to rate
Chordie recommends:
Learn how to play guitar at JamPlay.com
Songbook:
Login to add this song to your songbook
Support the artist
Preview/buy this song
MSN Music
Why this non-profit ad?

 
login to add comments/video/corrections