Guitar Tabs, Chords and Lyrics


Face of the Earth    Days Of The New



Artist: Days of the New
Song: Face of the Earth
Album: Days of the New
Tabbed by: Miles Miletto
Tuning: Double drop-d tuned 1/2 step down
* please rate this tab *
** I'm not sure of the timing of RIFF A but it seems to fit**

Intro:
---------------|----------------|----------------|----------------
---------------|----------------|----------------|----------------
4b-----5-------|5b-----4--------|4b-----5--------|2---------------
0--------------|0---------------|0---------------|0---------------
0--------------|0---------------|0---------------|0---------------
0--------------|0---------------|0---------------|0---------------
(these are to be bent slowly)

RIFF A: 2x
--------------------------------------------------------
----3---1h3---1---1-------1-----3---1h3---1---1-------1-
----2---0h2---0-----0-----0-----2---0h2---0-----0-----0-
--0---0-----------------0-----0---0-----------------0---
----------------3---------------------------------3-----
0-----------0---------3-----0-----------0---3-----------

--------------------------------------------------------
----3---1h3---1---1-------1-----3---1h3---1---1-------0-
----2---0h2---0-----0---0-------2---0h2---0---0-0-----0-
--0---0---------------3-------0---0-----------------0---
------------0---3--------------------------------/5-----
0---------------------------0-----------0---3-----------

RIFF B:
------------|------------|------------|------------|
------------|------------|------------|------------|
------------|------------|------------|------------|
----0---0---|----0---0---|----0---0---|----0---0---|
--0---0---0-|--0---0---0-|--0---0---0-|--0---0---0-|
0-----------|3-----------|5-----------|5-----------|

(w/RIFF C)
------------|------------|------------|------------
------------|------------|------------|------------
------------|------------|--------0---|------------
----0---0---|----0---0---|----0-------|----6---3b--
--0---0---0-|--0---0---0-|--0---0-----|------------
0-----------|3-----------|5-----------|------------

RIFF C:
------------|------------|------------|------------
------------|------------|------------|------------
------------|------------|------------|------------
--0-0---0-0-|--0-0---0-0-|--0-0---0-0-|----6---3b--
3b----3b----|3b----3b----|3b----3b----|3-----------
------------|------------|------------|------------

RIFF D: 2x
------------|------------|------------|------------
------------|--------1h3-|------------|------------
----2---0h2-|--------0h2-|------------|------------
------------|----0-------|----0---0---|----0---0---
--0---0-----|--0---0-----|--0---0---0-|--0---0-----
0-----------|3-----------|5-----------|5---------3b

RIFF E:
------------|------------|------------|------------
------------|--------1h3-|------------|------------
----2---0h2-|--------0h2-|------------|------------
------------|----0-------|----0---0---|----0-------
--0---0-----|--0---0-----|--0---0---0-|--0---------
0-----------|3-----------|5-----------|5-----3-b---

RIFF F: 5x
------------|------------|------------|------------
----3-------|------------|------------|------------
----2---0h2-|--------0h2-|------------|------------
------------|----0-------|----0---0---|----6---3---
--0---0-----|--0---0-----|--0---0---0-|--0---0---0-
0-----------|3-----------|5-----------|5-----------

RIFF A: 2x
--------------------------------------------------------
----3---1h3---1---1-------1-----3---1h3---1---1-------1-
----2---0h2---0-----0-----0-----2---0h2---0-----0-----0-
--0---0-----------------0-----0---0-----------------0---
----------------3---------------------------------3-----
0-----------0---------3-----0-----------0---3-----------

--------------------------------------------------------
----3---1h3---1---1-------1-----3---1h3---1---1-------0-
----2---0h2---0-----0---0-------2---0h2---0---0-0-----0-
--0---0---------------3-------0---0-----------------0---
------------0---3--------------------------------/5-----
0---------------------------0-----------0---3-----------

RIFF B:
------------|------------|------------|------------|
------------|------------|------------|------------|
------------|------------|------------|------------|
----0---0---|----0---0---|----0---0---|----0---0---|
--0---0---0-|--0---0---0-|--0---0---0-|--0---0---0-|
0-----------|3-----------|5-----------|5-----------|

RIFF G:
------------|------------|------------|------------
------------|------------|------------|------------
------------|------------|0-----------|------------
--0-0---0-0-|--0-0---0-0-|0-----------|----6---3b--
3b----3b----|3b----3b----|0-----------|------------
------------|------------|5-----------|------------

RIFF A: 2 3/4x
--------------------------------------------------------
----3---1h3---1---1-------1-----3---1h3---1---1-------1-
----2---0h2---0-----0-----0-----2---0h2---0-----0-----0-
--0---0-----------------0-----0---0-----------------0---
----------------3---------------------------------3-----
0-----------0---------3-----0-----------0---3-----------

--------------------------------------------------------
----3---1h3---1---1-------1-----3---1h3---1---1-------0-
----2---0h2---0-----0---0-------2---0h2---0---0-0-----0-
--0---0---------------3-------0---0-----------------0---
------------0---3--------------------------------/5-----
0---------------------------0-----------0---3-----------

LEAD IN:
--------------------------------------------------------
----3---1h3---1---1-------1-----3---1h3---1---1-------0-
----2---0h2---0-----0---0-------2---0h2---0---0-0-----0-
--0---0---------------3-------0---0-----------------0---
------------0---3--------------------------------/5-----
0---------------------------0-----------0---3-----------

RIFF H: 4x
-----------------------------|-------------------------------
-----------------------------|-------------------------------
-----------------------------|-------------------------------
0---0-0-12\-0-0-10-0-0-3b0-0-|0---0--0--12\-0-0-10-0-0-3b0-0-
0---0-0-12\-0-0-10-0-0-3b0-0-|0---0--0--12\-0-0-10-0-0-3b0-0-
0---0-0-12\-0-0-10-0-0-3b0-0-|0---0--0--12\-0-0-10-0-0-3b0-0-

OUTRO:

----------------------------|--------------------------------
----3---1h3---1---1-------0-|--------------------------------
----2---0h2---0---0-0-----0-|--------------------------------
0-----0---------3-------0---|--------------------------------
0-----------0--------/5-----|--------------------------------
0---------------------------|--------------------------------

----------------------------
----------------------------
5b-----------4--------------
0---------------------------
0---------------------------
0---------------------------


Important: The song above is NOT stored on the Chordie server. The original song is hosted at www.xguitar.com. Chordie works as a search engine and provides on-the-fly formatting. Chordie does not index songs against artists/composers will. To remove this song please click here.

This song is displayed as text-only. Transposing and tuning is only available for chordpro-songs.

Login - add to songbook

Rating click stars to rate

Layout
Accuracy

SHARE PAGE  




You need to log in to post comments