Guitar Tabs, Chords and Lyrics


Cesspools in Eden    Dead Kennedys



subpistolspunk@aol.com
!!!!i cant feel my fingers!!!!
most notes and chords aren't the exact amount of times to hit them like all my
other tabs

intro

do this twice
(we'll call this introchord1|
since we use it again later|
& i dont wanna rewrite it)|
(dont do last |
three notes second time) | then
e|-3-5-6-6---3-7-4-4-----|--------7-6-----------7-6-6-6-7-8-------7-6-6-6-7-6---|
B|-3-7-8--7--3-9-6---2-5-|----6-8-----8-6---6-8---------------6-8-------------8-|
G|-4-7-8---8-4-9-6-------|---7------------7------------------7------------------|
D|-5-7-8-----5-9-6-------|------------------------------------------------------|
A|-5-5-6-----5-7-4-------|------------------------------------------------------|
E|-3-5-6-----3-7-4-------|------------------------------------------------------|

e|-6---6-7-6--------------7-6---6-8-6---6-7-6---6-8v-7-6---6-7-6---6-7-6---6-8v-|
B|---8-------8-6---6----6-----8-------8-------8----------8-------8-------8------|
G|---------------7----7---------------------------------------------------------|
D|------------------------------------------------------------------------------|
A|------------------------------------------------------------------------------|
E|------------------------------------------------------------------------------|

this parts kinda tricky you gotta hit each note a few times each while
vibratoing each of them the whole time you're hitting them

e|-10v-13v-15v-13/12/13---------|
B|------------------------------|
G|------------------------------|
D|------------------------------|
A|------------------------------|
E|------------------------------|

verse (oh, oh, oh, oh)then introchord1 alot
e|-----------------------------------------|
B|-9-10-9---------------------10-----------|
G|--------10-----7-6-------10----10-9------|
D|-------------7-----8bp7------------------|
A|-----------------------------------------|
E|-----------------------------------------|


then finally the part where jello goes (cesspools...)
this is riff2 (oozing away) this solo vibrato the whole time
e|-3-5-4-3-1-3-2---3-5-6-5-3--------------------10---------------------------|
B|-3-7-6-5-1-5-4---3-5-6-5-3---7-8-9-10-9-8-6-7------10-11-12-14-13-12-11-10-|
G|-4-7-6-5-2-5-4---4-6-7-6-4---7-8-9-10-9-8-6-7----7-10-11-12-14-13-12-11-10-|
D|-5-7-6-5-3-5-4---5-7-8-7-5-------------------------------------------------|
A|-5-5-4-3-3-3-2---5-7-8-7-5-------------------------------------------------|
E|-3-5-4-3-1-3-2---3-5-6-5-3-------------------------------------------------|
lead into verse
e|---------------------------------------------------------------------------|
B|-9-10-9-------9-10-9-10-12-10-9--------------------------------------------|
G|-------10v-9v-------------------10-9---------------------------------------|
D|---------------------------------------------------------------------------|
A|---------------------------------------------------------------------------|
E|---------------------------------------------------------------------------|
then oozing away part but new solo (let's go)
e|------------------------------------------------------------6-3------------|
B|---5-8-7-5---5---5-8-7/19----17-20-19-17----17----17-20-19--6-3------------|
G|-5---------7---5----------17-------------19----17-----------7-4------------|
D|------------------------------------------------------------8-5------------|
A|------------------------------------------------------------8-5------------|
E|------------------------------------------------------------6-3------------|
do 2x normal then 2x
palm muted then do let's go riff then introriff1 then riff2
and end the song with
this riff then it's (have a nice day)/
e|---5-4-------5-4------5-3-5-3-3-1-3-1-3-4-5------------------------------3-|
B|-------6-5-------6-5--7-5-5-5-5-3-3-3-5-6-7------------------------------3-|
G|-7---------7----------7-5-6-5-5-3-4-3-5-6-7------------------------------4-|
D|----------------------7-5-7-5-5-3-5-3-5-6-7------------------------------5-|
A|----------------------5-3-7-3-3-1-5-1-3-4-5------------------------------5-|


Important: The song above is NOT stored on the Chordie server. The original song is hosted at www.xguitar.com. Chordie works as a search engine and provides on-the-fly formatting. Chordie does not index songs against artists'/composers' will. To remove this song please click here.

This song is displayed as text-only. Transposing and tuning is only available for chordpro-songs.

Login - add to songbook

Rating click stars to rate

Layout
Accuracy

SHARE PAGE  




You need to log in to post comments