Guitar Tabs, Chords and Lyrics


Fleshdunce    Dead Kennedys



-----------------------------------------------------------------------------
				    Fleshdunce
-----------------------------------------------------------------------------


INTRO:
e|------------------------------------7--------------------------------------|
B|--------------------------------------7------------------------------------|
G|---------------------------------------------------------------------------|
D|---------------------------------------------------------------------------|
A|-9-999-7-7-777-9-9-999-7-7-777-9--9----------------------------------------|
E|-7-777-5-5-555-7-7-777-5-5-555-7--7----------------------------------------|

RIFF 1:
e|---------------------------------------------------------------------------|
B|---------------------------------------------------------------------------|
G|---------------------------------------------------------------------------|
D|---------------------10-9-7------------------------------------------------|
A|-999999-7-4-7-999999-8--7-5------------------------------------------------|
E|-777777-5-2-5-777777-------------------------------------------------------|

RIFF 2:
e|---------------------------------------------------------------------------|
B|---------------------------------------------------------------------------|
G|---------------------------------------------------------------------------|
D|-77777-55555-------------77777-55555-------------77777-55555---------------|
A|-55555-33333-77777-77777-55555-33333-77777-77777-55555-33333-77777-77777---|
E|-------------55555-55555-------------55555-55555-------------55555-55555---|

e|---------------------------------------------------------------------------|
B|---------------------------------------------------------------------------|
G|---------------------------------------------------------------------------|
D|-77777-55555---------------------------------------------------------------|
A|-55555-33333-77777-777-577777-777-9----------------------------------------|
E|-------------55555-555-355555-555-7----------------------------------------|

RIFF 3:
e|---------------------------------------------------------------------------|
B|---------------------------------------------------------------------------|
G|---------------------------------------------------------------------------|
D|--------77-99-10101010101010101010101010101010-----------------------------|
A|-999-99-55-77-8-8-8-8-8-8-8-8-8-8-8-8-8-8-8-8------------------------------|
E|-777-77--------------------------------------------------------------------|

e|---------------------------------------------------------------------------|
B|---------------------------------------------------------------------------|
G|---------------------------------------------------------------------------|
D|-101010-1010-99-77---------------------------------------------------------|
A|-8-8-8--8-8--77-55-9999999999999999----------------------------------------|
E|-------------------7777777777777777----------------------------------------|

After Riff 3 is played twice move it up two frets then play it twice more.


Important: The song above is NOT stored on the Chordie server. The original song is hosted at www.xguitar.com. Chordie works as a search engine and provides on-the-fly formatting. Chordie does not index songs against artists'/composers' will. To remove this song please click here.

This song is displayed as text-only. Transposing and tuning is only available for chordpro-songs.

Login - add to songbook

Rating click stars to rate

Layout
Accuracy

SHARE PAGE  




You need to log in to post comments