Guitar Tabs, Chords and Lyrics


Hop With the Jet Set    Dead Kennedys



no chords are exact number of strums
t - tremolo pick
b- bend
INTRO
e|-5-3-5-3-----------------------------------------------5-3-0-5-3-0-5-3-0-5-|
B|-5-3-5-3-----------------------------------------------5-3-0-5-3-0-5-3-0-5-|
G|-6-4-6-4-----------------------------------------------6-4-1-6-4-1-6-4-1-6-|
D|-7-5-7-5-----------------------------------------------7-5-2-7-5-2-7-5-2-7-|
A|-7-5-7-5-----------------------------------------------7-5-2-7-5-2-7-5-2-7-|
E|-5-3-5-3--5t-7t-8t-5t-7t-8t-0t-2t-3t-5t-7t-8t-0t-2t-3t-5-3-0-5-3-0-5-3-0-5-|

VERSE
you do this until he says
"come on for the ride"
then its then this again a few times
e|-5-3-0--10--8-5-10--8-5-10--8-10-11-10--8--5-3-0-----------------------------|
B|-5-3-0--10--8-5-10--8-5-10--8-10-11-10--8--5-3-0-----------------------------|
G|-6-4-1--11--9-6-11--9-6-11--9-11-12-11--9--6-4-1-----------------------------|
D|-7-5-2--12-10-7-12-10-7-12-10-12-13-12-10--7-5-2-----------------------------|
A|-7-5-2--12-10-7-12-10-7-12-10-12-13-12-10--7-5-2-----------------------------|
E|-5-3-0--10--8-5-10--8-5-10--8-10-11-10--8--5-3-0-----------------------------|

CHORUS "we'll sun ourselves red down in montego bay"
then this again
e|-5-7-10-12-10-5--8-10--8-5-7-10-12-10-5--8---5-3-0-5----------------|
B|-7-9-12-14-12-7-10-12-10-7-9-12-14-12-7-10---5-3-0-5----------------|
G|-7-9-12-14-12-7-10-12-10-7-9-12-14-12-7-10---6-4-1-6----------------|
D|-7-9-12-14-12-7-10-12-10-7-9-12-14-12-7-10---7-5-2-7-drums then do -|
A|-5-7-10-12-10-5--8-10--8-5-7-10-12-10-5--8---7-5-2-7-the riff more--|
E|-5-7-10-12-10-5--8-10--8-5-7-10-12-10-5--8---5-3-0-5----------------|

solo (you do it after the second chorus instead of the drum solo)
do each note a few times fast do it twice last time dont do 6
e|----------------------5-3-5-3-5-3-5-3-0-5------------------------------------|
B|----------------------5-3-5-3-5-3-5-3-0-5------------------------------------|
G|----------------------6-4-6-4-6-4-6-4-1-6------------------------------------|
D|----------------------7-5-7-5-7-5-7-5-2-7------------------------------------|
A|---7-10-7-8---7-------7-5-7-5-7-5-7-5-2-7------------------------------------|
E|-8----------8---10-6--5-3-5-3-5-3-5-3-0-5------------------------------------|

last verse (national geographic..)
e|-7-5-2-12-10-7-12-10-7-12-10-12-13-12-10-7-5-2-------------------------------|
B|-7-5-2-12-10-7-12-10-7-12-10-12-13-12-10-7-5-2-------------------------------|
G|-8-6-3-13-11-8-13-11-8-13-11-13-14-13-11-8-6-3-------------------------------|
D|-9-7-4-14-12-9-14-12-9-14-12-14-15-14-12-9-7-4-------------------------------|
A|-9-7-4-14-12-9-14-12-9-14-12-14-15-14-12-9-7-4-------------------------------|
E|-7-5-2-12-10-7-12-10-7-12-10-12-13-12-10-7-5-2-------------------------------|

last chorus all this
two times
e|-7--9-12-14-12-7-10-12-10-7--9-12-14-12-7-10---------------------------------|
B|-9-11-14-16-14-9-12-14-12-9-11-14-16-14-9-12---------------------------------|
G|-9-11-14-16-14-9-12-14-12-9-11-14-16-14-9-12---------------------------------|
D|-9-11-14-16-14-9-12-14-12-9-11-14-16-14-9-12---------------------------------|
A|-7--9-12-14-12-7-10-12-10-7--9-12-14-12-7-10---------------------------------|
E|-7--9-12-14-12-7-10-12-10-7--9-12-14-12-7-10---------------------------------|

outro play same as solo
e|-10--8-5----------------------------------------------5-5--------------------|
B|-10--8-5----------------------------------------------5-7--------------------|
G|-11--9-6----------------------------------------------6-7--------------------|
D|-12-10-7----------------------------------------------7-7--------------------|
A|-12-10-7-----9-12-9-------9---------9-12-9-10----9----7-5--------------------|
E|-10--8-5--10--------8b-10---12-8-10-----------10---12-5-5--------------------|




Important: The song above is NOT stored on the Chordie server. The original song is hosted at www.xguitar.com. Chordie works as a search engine and provides on-the-fly formatting. Chordie does not index songs against artists'/composers' will. To remove this song please click here.

This song is displayed as text-only. Transposing and tuning is only available for chordpro-songs.

Login - add to songbook

Rating click stars to rate

Layout
Accuracy

SHARE PAGE  




You need to log in to post comments